Log in

One click and you are in

Login with Facebook Login with Google

Why sign up and log in

Guitar Tabs Explorer
Hundredth bass tabs for Bottle it up

Bass tabs

Tuning: Standard (E A D G)


Intro:

G|---------------------------------------------------------------------------|
D|---------------------------------------------------------------------------|
A|---------------------------------------------------------------------------| x2
E|--9---10---7h-10-10--7h-10-10--7/--14--12-12--9h-12-12--9h-12--12\---------|

Verse 1:

G|---------------------------------------------------------------------------|
D|---------------------------------------------------------------------------|
A|---------------------------------------------------------------------------|
E|--9---10---7h-10-10--7h-10-10--7/--14--12-12--9h-12-12--9h-12--12\---------|
                                        x2
G|---------------------------------------------------------------------------|
D|---------------------------------------------------------------------------|
A|---------------------------------------------------------------------------|
E|--9---10---7h-10-10--7h-10-10--7/--14--12-12--9h-12-12--9h-12--14\---------|


Chorus 1:

G|---------------------------------------------------------------------------|
D|---------------------------------------------------------------------------|
A|---------------------------------------------------------------------------|
E|--9---10---7h-10-10--7h-10-10--7/--14--12-12--9h-12-12--9h-12--12\---------| x4


Verse 2:

G|---------------------------------------------------------------------------|
D|---------------------------------------------------------------------------|
A|---------------------------------------------------------------------------|
E|--9---10---7h-10-10--7h-10-10--7/--14--12-12--9h-12-12--9h-12--12\---------|
                                        x2
G|---------------------------------------------------------------------------|
D|---------------------------------------------------------------------------|
A|---------------------------------------------------------------------------|
E|--9---10---7h-10-10--7h-10-10--7/--14--12-12--9h-12-12--9h-12--14\---------|


Chorus 2:

G|---------------------------------------------------------------------------|
D|---------------------------------------------------------------------------|
A|---------------------------------------------------------------------------|
E|--9---10---7h-10-10--7h-10-10--7/--14--12-12--9h-12-12--9h-12--12\---------| x4


Breakdown:

G|---------------------------------------------------------------------------|
D|---------------------------------------------------------------------------|
A|---------------------------------------------------------------------------|
E|--9-9-10-10--------14-14-12-12---------------------------------------------| x8



Chorus 3:

G|---------------------------------------------------------------------------|
D|---------------------------------------------------------------------------|
A|---------------------------------------------------------------------------|
E|--9---10---7h-10-10--7h-10-10--7/--14--12-12--9h-12-12--9h-12--12\---------| x3


************************************

| h Hammer-on
| / Slide up
| \ Slide down
| x Dead note

************************************

Almost there ...

Sign in to get your own page with links to favourite songs and more. You are just one click away...

Login with Facebook Login with Google