Log in

One click and you are in

Login with Facebook Login with Google

Why sign up and log in

Guitar Tabs Explorer
Hundred Reasons tabs for Silver

Guitar tabs with lyrics

Artist-Hundred Reasons
Title-Silver
---------------------------------

Tabbed by Max Brown (max14_brown@hotmail.com)     standard tuning        =
This is probably their best song so far, here's my version.
It seems pretty much 100% but theres probably summin wrong with it!
          This may sound crap without two guitars!?

Almost all of the picking bits are played with some sort of phaser
and the intro has a flanger as well.

Tab Key- h=3DHammer on
         p=3DPull off
         x=3Dmute/scratch
         /=3Dslide up
         \=3Dslide down


Intro-guitar 1                                          (rpt x5)
|-------------------------------------------------------------|
|----1--------1p0----------------1------------1p0-------------|
|------0----------0----------------0--------------0-----------|
|-------------------------------------------------------------|
|-------------------------------------------------------------|
|-1---------1------------------1------------1-----------------|


Intro-Guitar 2           play as base comes in     (rpt x8)
|----------------------------------------------------------------|
|--------------------------<12>-------<12>---------<12>----------|
|-- play in harmonics ---------<12>---------<12>---------<12>----|
|----------------------------------------------------------------|
|----------------------------------------------------------------|
|----------------------------------------------------------------|
                                                                         =


Pre-verse Guitar 1
Listen to the song and you'll pick up the strumming   (rpt x1)
|----------------------------------------------------------------|
|----------------------------------------------------------------|
|-5-x-5-x-5-5-5--------------------------------------------------|
|-x-x-x-x-x-x-x---7-x-7-x-7-7-7---5-x-5-x-5-5-5---3-x-3-x-3-3-3--|
|-3-x-3-x-3-3-3---x-x-x-x-x-x-x---x-x-x-x-x-x-x---x-x-x-x-x-x-x--|
|-----------------5-x-5-x-5-5-5---3-x-3-x-3-3-3---1-x-1-x-1-1-1--|

Pre-verse guitar 2                                       (rpt x1)
|----------------------0h1p0---0h1p0--------------0h1p0---0h1p0--|
|-----1p0-1-3-1-0------------1-------1--0-1-3-1-0-------1-------1|
|----------------------------------------------------------------|
|----------------------------------------------------------------|
|-3-3-------------0-0--------------------------------------------|
|----------------------------------------------------------------|



Verse Guitar 2 (only Guitar 2 coz guitar 1 does the vocals)(rpt x1)
|---------------------------------------------------------------|
|-------------------------------------------------1------1p0----|
|-5-x-5-x-5-5-5---5-5-5-5-5-5-5---5-5-5-5-5-5-5-----0--------0--|
|-x-x-x-x-x-x-x---x-x-x-x-x-x-x---x-x-x-x-x-x-x-----------------|
|-3-x-3-x-3-3-3---x-x-x-x-x-x-x---x-x-x-x-x-x-x-----------------|
|-----------------5-x-5-x-5-5-5---3-x-3-x-3-3-3--1------1-------|


 Chorus Guitar 1(I think)  not to sure about this part,   (rpt once)
|-----------------------------------------------------------------|
|-----------------------------------------------------------------|
|-----------------------------------------------------------------|
|---10--/--5--\---10----------7-----5-----3-----------------------|
|----x--/--x--\---x-----------x-----x-----x-----------------------|
|----8--/--3--\---8-----------5-----3-----1-----------------------|
          Slow slide.        Strum whatever sounds right
 Chorus Guitar 2                                                         =

|-------------------------------------------------------------------|
|---------------------------<12>------<12>------<12>---<12><12>-----|
| play in harmonics ---<12>------<12>------<12>----------------<12>-|
|-------------------------------------------------------------------|
|-------------------------------------------------------------------|
|-------------------------------------------------------------------|

 Chorus Guitar 2  Second time                                            =

|------------------------------------------------------------------|
|---------------------------<12>------<12>------<12>------<12>-----|
| play in harmonics ---<12>------<12>------<12>---------------<12>-|
|------------------------------------------------------------------|
|------------------------------------------------------------------|
|------------------------------------------------------------------|


after chorus you play the Pre-verse part and then the

Verse followed by the chorus.

Now is the cool bit, the slow bit before the final chorus.

Guitar 2                       (Rpt x1)                    (rpt x1)
|---------------------------------3--|---3-3---3--3---3--3-----3--|
|----0--1-1/3\1--0-----0--1--1/3---3-|-------0------1------1/3---3|
|-0-----------------0----------------|-0--------------------------|
|------------------------------------|----------------------------|
|------------------------------------|----------------------------|
|------------------------------------|----------------------------|
 Guitar 1                                                (rpt x11)
|-----------------------------------------------------------------|
|-----------------------------<12>------<12>------<12>------------|
| play in harmonics -----<12>------<12>------<12>-----------------|
|-----------------------------------------------------------------|
|-----------------------------------------------------------------|
|-----------------------------------------------------------------|


If you like you can play the cool synthesiser bit!?        (rptx1)
|---7h8p7------7h8p7----------7h8p7-------10-------------------|
|---------8-------------10----------8----------6---------------|
|--------------------------------------------------------------|
|--------------------------------------------------------------|
|--------------------------------------------------------------|
|--------------------------------------------------------------|

Both guitars are strumming these chords quickly.
|--------------------------------------------------|
|--------------------------------------------------|
|--5-5-5-5-5---------------------------------------|
|--x-x-x-x-x----7-7-7-7-7---5-5-5-5-5---3-3-3-3-3--|
|--3-3-3-3-3----x-x-x-x-x---x-x-x-x-x---x-x-x-x-x--|
|---------------5-5-5-5-5---3-3-3-3-3---1-1-1-1-1--|

1st part of riff

|------------------------------------------------------------|
|------------------------------------------------------------|
|--5-5-5-5-5-------------------------------------------------|
|--x-x-x-x-x----7-7-7-7-7---5-5-5-5-5---- 3--x-x-x--3--x-x-x-|
|--3-3-3-3-3----x-x-x-x-x---x-x-x-x-x-----x--x-x-x--x--x-x-x-|
|---------------5-5-5-5-5---3-3-3-3-3-----1--x-x-x--1--x-x-x-|

2nd part of riff


Chorus.
|----------------------------------------------------------|
|----------------------------------------------------------|
|----------------------------------------------------------|
|---10--/--5--\--10--------------7-------5-------3---------|
|----x--/--x--\--x---------------x-------x-------x---------|
|----8--/--3--\--8---------------5-------3-------1---------|
          Slow slide.        Strum whatever sounds right

                                                                         =


Outro-guitar 1                         (rpt x1)
|----------------------------------------------|---0--|
|---1--------1p0-------------1----------1p0----|---1--|
|-----0----------0-------------0--------------0|---0--|Play on
|----------------------------------------------|---0--|end of
|----------------------------------------------|---0--|repeat
|-1--------1---------------1----------1--------|---1--|


That's pretty much it...bare in mind that this is my first ever tab
but feel free to E-mail any corrections or comments to me

Almost there ...

Sign in to get your own page with links to favourite songs and more. You are just one click away...

Login with Facebook Login with Google