Log in

One click and you are in

Login with Facebook Login with Google

Why sign up and log in

Guitar Tabs Explorer
Hundred Reasons tabs for Falter acoustic

Guitar tabs

Intro and Verse:

E-|-----------------------|-----------------------|
B-|------------------2h3--|------------------2h3--|
G-|----------------2------|----------------2------|
D-|-------0--2h4----------|-------0--2h4----------|
A-|----0------------------|----0------------------|
D-|-0---------------------|-0---------------------|

E-|-----------------------|-----------------------|
B-|------------------2h3--|------------------2h3--|
G-|----0-----------2------|----0-----------2------|
D-|-------0--2h4----------|-------0--2h4----------|
A-|-----------------------|-----------------------|
D-|-5---------------------|-5---------------------|


Pre-Chorus (Rhythms and numbers of chords differ, but this is the general
idea):


E-|-----------------------|-----------------------|
B-|-----------------------|-----------------------|
G-|-----------------------|-----------------------|
D-|-----------------------|-----------------------|
A-|--5-5-5-5----5-5-5-5---|--5-5-5-5----5-5-5-5---|
D-|--5-5-5-5----5-5-5-5---|--5-5-5-5----5-5-5-5---|


Chorus:

E-|-----------------------|-----------------------|
B-|-----------------------|-----------------------|
G-|-----------------------|-----------------------|
D-|---x-x-x-x---x-x-x-x---|---x-x-x-x---x-x-x-x---|
A-|--/5-5-5-4---4-4-4-4---|---5-5-5-4---4-4-4-4---|
D-|--/5-5-5-5---5-5-5-5---|---3-3-3-3---3-3-3-3---|

                            A chord diagramC majorC
E-|-----------------------|-----------------------|
B-|-----------------------|-----------------------|
G-|-----------------------|-5---------------------|
D-|--/5-5-5-4---4-4-4-4---|-5---------------------|
A-|--/2-2-2-2---2-2-2-2---|-3---------------------|
D-|---x-x-x-x---x-x-x-x---|-----------------------|



Chorus end (strummed chord):

     A chord diagramC majorC
E-|--3--------------------|
B-|--5--------------------|
G-|--5--------------------|
D-|--5--------------------|
A-|--3--------------------|
D-|-----------------------|


Solo (not difficult but for the sake of completeness):

E-|--5------5----5--------|--5------5h7---5-------|
B-|-----------------------|-----------------------|
G-|----7------7-------7---|-----7-------7----7----|
D-|-----------------------|-----------------------|
A-|-----------------------|-----------------------|
D-|-----------------------|-----------------------|


Pre-Acapella Chorus (strummed chord):

     A chord diagramD MajorD (upstroke from the last note of the solo)
E-|--5--------------------|
B-|--7--------------------|
G-|--7--------------------|
D-|--7--------------------|
A-|--5--------------------|
D-|-----------------------|

And that's about it.
ⓘ Guitar tab for 'Falter Acoustic' by Hundred Reasons, a punk rock band formed in 1999 from Aldershot, UK

Almost there ...

Sign in to get your own page with links to favourite songs and more. You are just one click away...

Login with Facebook Login with Google