Log in

One click and you are in

Login with Facebook Login with Google

Why sign up and log in

Guitar Tabs Explorer
Human Tetris bass tabs for Insanity

Bass tabs

Tuning: Standard (E A D G)

G|----------------------------------------------|
D|---------------------------2-----2------------|
A|--0-0-0-0-0-0-0-2-3-3-3-3-----3-----3-2-------|
E|----------------------------------------------|
G|------------------------------------0---------|
D|---------------------------------2----2-------|
A|--0-0-0-0-0-0-0-2-3-3-3-3-3-2-3---------3--2--|
E|----------------------------------------------|


G|----------------------------------------------|
D|---------------------------2-----2------------|
A|--0-0-0-0-0-0-0-2-3-3-3-3-----3-----3-2-------|
E|----------------------------------------------|


G|------------------------------------0---------|
D|---------------------------------2----2-------|
A|--0-0-0-0-0-0-0-2-3-3-3-3-3-2-3---------3--2--|
E|----------------------------------------------|


G|----------------------------------------------|
D|---------------------------2-----2------------|
A|--0-0-0-0-0-0-0-2-3-3-3-3-----3-----3-2-------|
E|----------------------------------------------|


G|------------------------------------0---------|
D|---------------------------------2----2-------|
A|--0-0-0-0-0-0-0-2-3-3-3-3-3-2-3---------3--2--|
E|----------------------------------------------|

G|---------------------------------------------------------------------|
D|-----------------5----------------5----------------------------------|
A|--77-77777-77777---55-55555-55555---33-33333-33333-55-55555-55555666-|
E|---------------------------------------------------------------------|


G|---------------------------------------------------------------------|
D|-----------------5----------------5----------------------------------|
A|--77-77777-77777---55-55555-55555---33-33333-33333-55-55555-55555666-|
E|---------------------------------------------------------------------|


G|-----------------------------------------------------------------------------|
D|-----5----5----5--------5----5----5------------------------------------------|
A|--77---77---77---777-55---55---55---555-33-2-33-2-33-2-333-55-55555-55555666-|
E|-----------------------------------------------------------------------------|


G|-----------------------------------------------------------------------------|
D|-----5----5----5--------5----5----5------------------------------------------|
A|--77---77---77---777-55---55---55---555-33-2-33-2-33-2-333-55-55555-55555666-|
E|-----------------------------------------------------------------------------|


G|--------------------------------------------------------------------------|
D|--------------------------------------------------------------------------|
A|--0-00000000000000-2-222222222222-222-0-00000000000000-2-222222222222-222-|
E|--------------------------------------------------------------------------|


G|--------------------------------------------------------------------------|
D|--------------------------------------------------------------------------|
A|--0-00000000000000-2-222222222222-222-0-00000000000000-2-222222222222-222-|
E|--------------------------------------------------------------------------|


G|--------------------------------------------------------------------------|
D|--------------------------------------------------------------------------|
A|--0-00000000000000-2-222222222222-222-0-00000000000000-2-222222222222-222-|
E|--------------------------------------------------------------------------|

G|----------------------------------------------------------------------------|
D|------------------------------------------------------------------------555-|
A|--0-00000000000000-2-222222222222-222-0-00000000000000-2-222222222222/5-----|
E|----------------------------------------------------------------------------|


G|---------------------------------------------------------------------|
D|-----------------5----------------5----------------------------------|
A|--77-77777-77777---55-55555-55555---33-33333-33333-55-55555-55555666-|
E|---------------------------------------------------------------------|


G|---------------------------------------------------------------------|
D|-----------------5----------------5----------------------------------|
A|--77-77777-77777---55-55555-55555---33-33333-33333-55-55555-55555666-|
E|---------------------------------------------------------------------|


G|-----------------------------------------------------------------------------|
D|-----5----5----5--------5----5----5------------------------------------------|
A|--77---77---77---777-55---55---55---555-33-2-33-2-33-2-333-55-55555-55555666-|
E|-----------------------------------------------------------------------------|


G|-----------------------------------------------------------------------------|
D|-----5----5----5--------5----5----5------------------------------------------|
A|--77---77---77---777-55---55---55---555-33-2-33-2-33-2-333-55-55555-55555666-|
E|-----------------------------------------------------------------------------|


G|---------------------------------------------------------------------------|
D|--7---7-5--7-5--7-5----------------------7-5--7-5--7-5---------------------|
A|---------------------5555555533333333-0-----------------5555555533333333-0-|
E|---------------------------------------------------------------------------|


G|-----------------------------------------------------------------------|
D|--7-5--7-5--7-5----------------------7-5--7-5--7-5---------------------|
A|-----------------5555555533333333-0-----------------5555555533333333-0-|
E|-----------------------------------------------------------------------|


G|--------------------------------------------------------|
D|--------------------------------------------------------|
A|----------7-777777--10-10--------7-777777--10-10--------|
E|--------------------------10-8-7-----------------10-8-7-|


G|--------------------------------------------------------|
D|--------------------------------------------------------|
A|----------7-777777--10-10--------7-777777--10-10--------|
E|--------------------------10-8-7-----------------10-8-7-|

Almost there ...

Sign in to get your own page with links to favourite songs and more. You are just one click away...

Login with Facebook Login with Google