Log in

One click and you are in

Login with Facebook Login with Google

Why sign up and log in

Guitar Tabs Explorer
The Human League bass tabs for Open your heart

Bass tabs

Tuning: Standard tuning


Tabbed by: bassm99
E-mail: alanmatthews1966@yahoo.co.uk
Tuning: E, A, D, G


Bass Starts: 0:07


Intro: (Play 4 Times)

G|--------------------------------------------------------------------------|
D|--------------------------------------------------------------------------|
A|--3-3-3-3-3-3-3-3---------------------------------------------------------|
E|--------------------------------------------------------------------------|


Verse: (Play 16 Times)

G|--------------------------------------------------------------------------|
D|--------------------------------------------------------------------------|
A|--3-3-3-3-3-3-3-3---------------------------------------------------------|
E|--------------------------------------------------------------------------|


Pre Chorus:

G|--------------------------------------------------------------------------|
D|--------------------------------------------------------------------------|
A|--3-3-3-3-3-3-3-3--3-3-3-3-3-3-3-3/--8-8-8-8-8-8-8-8--8-8-8-8-8-8---------|
E|------------------------------------------------------------------6-4-----|

G|--------------------------------------------------------------------------|
D|--------------------------------------------------------------------------|
A|---------------------------------------------------------------2-3-5------|
E|--3-3-3-3-3-3-3-3--1-1-1-1-1-1-1-1--3-3-3-3-3-3-3-3--1-1-1-1-1------------|

Instrumental Chorus: (Play Twice)

G|--------------------------------------------------------------------------|
D|-----------------------------2-3-5----------------------------------------|
A|--3-3-3-3-3-3-3-3--3-3-3-3-3----------------------------------------------|
E|--------------------------------------------------------------------------|


Verse:

G|--------------------------------------------------------------------------|
D|----------------------------------2-3-5-(x1)------------------------------|
A|--3-3-3-3-3-3-3-3-(x7)--3-3-3-3-3-------------3-3-3-3-3-3-3-3-(x4)--------|
E|--------------------------------------------------------------------------|
G|--------------------------------------------------------------------------|
D|--------------------------------------------------------------------------|
A|---------------------------------------------------------------2-3-5-(x1)-|
E|--3-3-3-3-3-3-3-3--1-1-1-1-1-1-1-1--3-3-3-3-3-3-3-3--1-1-1-1-1------------|


Chorus: (Play Twice)

G|--------------------------------------------------------------------------|
D|-----------------------------2-3-5----------------------------------------|
A|--3-3-3-3-3-3-3-3--3-3-3-3-3----------------------------------------------|
E|--------------------------------------------------------------------------|

First Bridge:

G|--------------------------------------------------------------------------|
D|--------------------------------------------------------------------------|
A|-----------------------------------------------------1-1-1-1-1-1-1-1-(x1)-|
E|--3-3-3-3-3-3-3-3--1-1-1-1-1-1-1-1--0-0-0-0-0-0-0-0-----------------------|

G|--------------------------------------------------------------------------|
D|----------------------------------2-3-5-(x1)------------------------------|
A|--1-1-1-1-1-1-1-1-(x3)--1-1-1-1-1-------------3-3-3-3-3-3-3-3-(x3)--------|
E|--------------------------------------------------------------------------|

G|--------------------------------------------------------------------------|
D|------------2-3-5-(x1)----------------------------------------------------|
A|--3-3-3-3-3-------------1-1-1-1-1-1-1-1-(x5)------------------------------|
E|--------------------------------------------------------------------------|

Repeat Chorus:

Second Bridge:

G|--------------------------------------------------------------------------|
D|--------------------------------------------------------------------------|
A|-----------------------------------------------------1-1-1-1-1-1-1-1------|
E|--3-3-3-3-3-3-3-3--1-1-1-1-1-1-1-1--0-0-0-0-0-0-0-0-----------------------|

Repeat Pre Chorus:


Chorus: (To Fade)

G|--------------------------------------------------------------------------|
D|--------------------------------------------------------------------------|
A|--3-3-3-3-3-3-3-3-(x8)----------------------------------------------------|
E|--------------------------------------------------------------------------|

G|--------------------------------------------------------------------------|
D|--------------------------------------------------------------------------|
A|--1-1-1-1-1-1-1-1--1-1-1-1-1-1-1-1--3-3-3-3-3-3-3-3--3-3-3-3-3-3-3-3-(x2)-|
E|--------------------------------------------------------------------------|

G|--------------------------------------------------------------------------|
D|--------------------------------------------------------------------------|
A|--3-3-3-3-3-3-3-3-(x12)---------------------------------------------------|
E|--------------------------------------------------------------------------|

Open Your Heart bass tab

The Human League bass tabs for Open your heart "Open Your Heart" from the album "Dare" (1981).

Written by Oakey/Callis.

Almost there ...

Sign in to get your own page with links to favourite songs and more. You are just one click away...

Login with Facebook Login with Google