Log in

One click and you are in

Login with Facebook Login with Google

Why sign up and log in

Guitar Tabs Explorer
The Human League bass tabs for Introducing

Bass tabs

Tuning: Standard tuning


Tabbed by: bassm99
E-mail: alanmatthews1966@yahoo.co.uk
Tuning: E, A, D, G

"Introducing" from the single "Empire State Human" (1979)
Written by Oakey/Marsh/Ware

Bass Starts: 0:33

Fig 1: (Play Twice)

G|--------------------------------------------------------------------------|
D|--------------------------------------------------------------------------|
A|--7-7-------7-(x3)----7-7-------7-7-7-(x1)--------------------------------|
E|------8-5-5---------------8-5-5-------------------------------------------|

Fig 2: (Play Once)

G|--------------------------------------------------------------------------|
D|--------------------------------------------------------------------------|
A|--7-7-------7-(x1)----7-7-------7-7-7-(x1)--------------------------------|
E|------8-5-5---------------8-5-5-------------------------------------------|

Repeat Fig 1:

Repeat Fig 2: (Play 7 Times)

Fig 3: (Play Twice)

G|--------------------------------------------------------------------------|
D|--------------------------------------------------------------------------|
A|--7-7-------7-7-7---------------------------------------------------------|
E|------8-5-5---------------------------------------------------------------|

Fig 4:

G|--------------------------------------------------------------------------|
D|--------------------------------------------------------------------------|
A|--7-7---------7-7-7-------------------------------------------------------|
E|------8-8-5-5-------------------------------------------------------------|

Fig 5: (Play 4 Times)

G|--------------------------------------------------------------------------|
D|--------------------------------------------------------------------------|
A|--7-7-----------7-7-7-----------------------------------------------------|
E|------8-8-8-5-5-----------------------------------------------------------|

Fig 6:

G|--------------------------------------------------------------------------|
D|--------------------------------------------------------------------------|
A|--7----------7------------------------------------------------------------|
E|-----8--5-5---------------------------------------------------------------|

Fig 7: (Play 7 Times)

G|--------------------------------------------------------------------------|
D|--------------------------------------------------------------------------|
A|--7-7-------7-------------------------------------------------------------|
E|------8-5-5---------------------------------------------------------------|

Repeat Fig 3: (Play Once)

Almost there ...

Sign in to get your own page with links to favourite songs and more. You are just one click away...

Login with Facebook Login with Google