Log in

One click and you are in

Login with Facebook Login with Google

Why sign up and log in

Guitar Tabs Explorer
Hum tabs for Songs of farewell

Guitar tabs with lyrics

"SONGS OF FAREWELL AND DEPARTURE" -BY HUM
this song is pretty simple and straight forward. I'm going to tab it two or
three ways to make it easy. It's got two guitar parts but I've found a way
or two to play it with one or three guitars. It's a good "group" song.

I'm to sure about the into but I have played with it and it's pretty mutch
just playing around with the second guitar part.

three guitar part version:

verse:
g1
E:-------------------------------------------------------------------------
B:-------------------------------------------------------------------------
G:-------------------------------------------------------------------------
D:5-55-55--5/6/7\6\5----5-55-55--5/6/7\6\5---------------------------------
A:5-55-55--5/6/7\6\5----5-55-55--5/6/7\6\5---------------------------------
e:3-33-33--3/4/5\4\3----3-33-33--3/4/5\4\3---------------------------------
           slow slide!
g2
E:-------------------------------------------------------------------------
B:---------3h5p3p0---------------3h5p3p0-----------------------------------
G:-------------------------------------------------------------------------
D:-------------------------------------------------------------------------
A:-------------------------------------------------------------------------
e:-------------------------------------------------------------------------

g3
E:-------------------------------------------------------------------------
B:-------------------------------------------------------------------------
G:-------------------------------------------------------------------------
D:5-55-55--55-----------5-55-55--55----------------------------------------
A:5-55-55--55-----------5-55-55--55----------------------------------------
e:3-33-33--33-----------3-33-33--33----------------------------------------

chorus (very short)
g1
E:--------------------------------------------------------------------------
B:--------------------------------------------------------------------------
G:--------------------------------------------------------------------------
D:5-55-55--55-555---5-55-55--55-555--7-77-77--77-777--5-55-55--55-555-------
A:5-55-55--55-555---5-55-55--55-555--7-77-77--77-777--5-55-55--55-555-------
e:3-33-33--33-333---3-33-33--33-333--5-55-55--55-555--3-33-33--33-333-------


g2
E:--------------------------------------------------------------------------
B:-------------------------------------------------------------------3h5p3p0
G:--------------------------------------------------------------------------
D:--------------------------------------------------------------------------
A:--------------------------------------------------------------------------
e:--------------------------------------------------------------------------


g3
E:--------------------------------------------------------------------------
B:-------------------------------------------------------------------3h5p3p0
G:--------------------------------------------------------------------------
D:5-55-55--55-555---5-55-55--55-555--7-77-77--77-777--5-55-55--55-555-------
A:5-55-55--55-555---5-55-55--55-555--7-77-77--77-777--5-55-55--55-555-------
e:3-33-33--33-333---3-33-33--33-333--5-55-55--55-555--3-33-33--33-333-------


TWO GUITAR VERSION:

VERSE:
g1
E:-------------------------------------------------------------------------
B:-------------------------------------------------------------------------
G:-------------------------------------------------------------------------
D:5-55-55--5/6/7\6\5----5-55-55--5/6/7\6\5---------------------------------
A:5-55-55--5/6/7\6\5----5-55-55--5/6/7\6\5---------------------------------
e:3-33-33--3/4/5\4\3----3-33-33--3/4/5\4\3---------------------------------
           slow slide!
g2
E:-------------------------------------------------------------------------
B:---------3h5p3p0---------------3h5p3p0-----------------------------------
G:-------------------------------------------------------------------------
D:-------------------------------------------------------------------------
A:-------------------------------------------------------------------------
e:-------------------------------------------------------------------------


CHORUS:
g1
E:--------------------------------------------------------------------------
B:--------------------------------------------------------------------------
G:--------------------------------------------------------------------------
D:5-55-55--55-555---5-55-55--55-555--7-77-77--77-777--5-55-55--55-555-------
A:5-55-55--55-555---5-55-55--55-555--7-77-77--77-777--5-55-55--55-555-------
e:3-33-33--33-333---3-33-33--33-333--5-55-55--55-555--3-33-33--33-333-------

g2
E:--------------------------------------------------------------------------
B:------------------3h5p3p0------------------------------------------3h5p3p0
G:--------------------------------------------------------------------------
D:5-55-55--55-555--------------------5-55-55--55-555--5-55-55--55-555-------
A:5-55-55--55-555--------------------5-55-55--55-555--5-55-55--55-555-------
e:3-33-33--33-333--------------------3-33-33--33-333--3-33-33--33-333-------


ONE GUITAR VERSION:

VERSE:
g1
E:-------------------------------------------------------------------------
B:------------3h5p3p0---------------3h5p3p0--------------------------------
G:-------------------------------------------------------------------------
D:5-55-55--55-----------5-55-55--55----------------------------------------
A:5-55-55--55-----------5-55-55--55----------------------------------------
e:3-33-33--33-----------3-33-33--33----------------------------------------


chorus:
g1
E:--------------------------------------------------------------------------
B:-------------------------------------------------------------------3h5p3p0
G:--------------------------------------------------------------------------
D:5-55-55--55-555---5-55-55--55-555--7-77-77--77-777--5-55-55--55-555-------
A:5-55-55--55-555---5-55-55--55-555--7-77-77--77-777--5-55-55--55-555-------
e:3-33-33--33-333---3-33-33--33-333--5-55-55--55-555--3-33-33--33-333-------


That should be pretty understandable. If you have the CD just play around
with it and it will come out just right. If any one has any ideas or
suggestions on the intro , or anything else E-mail me at "ACBASSBOY@aol.com"

enjoy!!!!

Almost there ...

Sign in to get your own page with links to favourite songs and more. You are just one click away...

Login with Facebook Login with Google