Log in

One click and you are in

Login with Facebook Login with Google

Why sign up and log in

Guitar Tabs Explorer
Hum tabs for I hate it too

Guitar tabs with lyrics

I Hate It Too' by Hum
             from the album 'You'd Prefer An Astronaut'

   use dropped-D tuning (tune your low A chord diagramE MajorE string down to A chord diagramD MajorD)

   Listen to the song for timing; I haven't tabbed every single chord
   stroke (that last chord in verse progression is sometimes played
   once, sometimes 4x), and Hum has two guitars to my one, but this
   will get you pretty close.

                   verse chord progression

 --4--4--4--4--4--2--2--2--2--2--9---9---9---9---9---4--4--4--4--4-
 --5--5--5--5--5--3--3--3--3--3--10--10--10--10--10--5--5--5--5--5-
 --6--6--6--6--6--4--4--4--4--4--11--11--11--11--11--6--6--6--6--6-
 --4--4--4--4--4--2--2--2--2--2--9---9---9---9---9---4--4--4--4--4-
 --4--4--4--4--4--2--2--2--2--2--9---9---9---9---9---4--4--4--4--4-
 --4--4--4--4--4--2--2--2--2--2--9---9---9---9---9---4--4--4--4--4-


 --9---9---9---9---9---4--4--4--4--4--------2--2-----------2--2----
 --10--10--10--10--10--5--5--5--5--5--------3--3-----------3--3----
 --11--11--11--11--11--6--6--6--6--6--------4--4-----------4--4----
 --9---9---9---9---9---4--4--4--4--4--------2--2-----------2--2----
 --9---9---9---9---9---4--4--4--4--4--2--2--2--2--2--2--2--2--2----
 --9---9---9---9---9---4--4--4--4--4--2--2--2--2--2--2--2--2--2----


                   chorus chord progression

 -----------------------------------------------------------------
 ------------------5--7-------------------------------------------
 -----------------------------------------------------------------
 -0--0--0--0--2--4------2--2--2--2--2--2--2--2--4--4--4--4--4--4--
 -0--0--0--0------------2--2--2--2--2--2--2--2--4--4--4--4--4--4--
 -0--0--0--0------------2--2--2--2--2--2--2--2--4--4--4--4--4--4--

 --------7--------7--7--7--5--5---5--5--5-------------7--7--7--
 --------7--------7--7--7--5--5---5--5--5---0--0--0---7--7--7--
 --------7--------7--7--7--6--6---6--6--6---4--4--4---7--7--7--
 --4--4--5--------5--5--5--7--7---7--7--7---5--5--5---5--5--5--
 --4--4--5--------5--5--5--5--5---5--5--5---0--0--0---5--5--5--
 --4--4--5--5--5--5--5--5--5--5---5--5--5-------------5--5--5--


 -5--5---5--5--5-
 -5--5---5--5--5-
 -6--6---6--6--6-
 -7--7---7--7--7-
 -5--5---5--5--5-
 -5--5---5--5--5-

        ....how it all goes together...

        (verse chord progression - no distortion)

	morning grey ignites a ...

        (chorus chord progression - no distortion)

	and she don't ....

        (verse chord progression with distortion)

	if we break off gently its ...

	(chorus again, and then back to verse progression)


  .....questions, comments and corrections to jeffnmoe@mcs.com

Almost there ...

Sign in to get your own page with links to favourite songs and more. You are just one click away...

Login with Facebook Login with Google