Green To Me by Hum

Green To Me bass tab by Hum

Bass tabs

Tuning: Drop D (D A D G)

Intro: (x2)
 4/4
G|--------------------------------|--------------------------------|
D|--------------------------------|--------------------------------|
A|--------------------------------|--------------------------------|
D|0-----0-x-x-0-----0-x-x-5h7-7---|5-----5-x-x-5-----5-x-x-5h7-7---|
 1  +  2  +  3  +  4  +
G|--------------------------------|--------------------------------|
D|--------------------------------|------------------------5p4-----|
A|--------------------------------|----------------------------5h7-|
D|0-----0-x-x-7-----7-x-x-5h7-7---|5-----5-x-x-5-------------------|


Verse:

G|--------------------------------|--------------------------------|
D|--------------------------------|--------------------------------|
A|--------------------------------|--------------------------------|
D|0-----0-x-x-0-----0-x-x-5h7-7---|5-----5-x-x-5-----5-x-x-5h7-7---|\
                                   |(x2)
G|--------------------------------|--------------------------------|/
D|--------------------------------|------------------------5p4-----|
A|--------------------------------|----------------------------5h7-|
D|0-----0-x-x-7-----7-x-x-5h7-7---|5-----5-x-x-5-------------------|

G|--------------------------------|--------------------------------|
D|--------------------------------|--------------------------------|
A|--------------------------------|--------------------------------| (x4)
D|0-0-0-0-0-0-0-0-0-0-0-0-0-0-0-0-|5-5-5-5-5-5-5-5-5-5-5-5-5-5-5-5-|


Chorus: (x2)

G|--------------------------------|--------------------------------|
D|--------------------------------|--------------------------------|
A|--------------------------------|--------------------------------|
D|0-----0-x-x-0-----0-x-x-5h7-7---|5-----5-x-x-5-----5-x-x-5h7-7---|

G|--------------------------------|--------------------------------|
D|--------------------------------|------------------------5p4-----|
A|--------------------------------|----------------------------5h7-|
D|0-----0-x-x-7-----7-x-x-5h7-7---|5-----5-x-x-5-------------------|


Bridge:

G|------------------------------------------------|------------------------------------------------|
D|------------------------------------------------|------------------------------------------------|
A|------------------------------------------------|------------------------------------------------| (x2)
D|0--0--0--0--0--0--0--0--0--0--0--0--12h14-12----|0--0--0--0--0--0--0--0--0--0--0--0--12h14-12----|

G|------------------------------------------------|------------------------------------------------|
D|------------------------------------------------|------------------------------------------------|
A|------------------------------------------------|------------------------------------------------|
D|12-------12-x--x--10-------10-x--x--10----10-10-|12-------12-x--x--10-------10-x--x--10----10-10-|

G|------------------------------------------------|------------------------------------------------|
D|------------------------------------------------|------------------------------------------------|
A|------------------------------------------------|------------------------------------------------| (x2)
D|0--0--0--0--0--0--0--0--0--0--0--0--12h14-12----|0--0--0--0--0--0--0--0--0--0--0--0--12h14-12----|

G|------------------------------------------------|------------------------------------------------|
D|------------------------------------------------|------------------------------------------------|
A|------------------------------------------------|------------------------------------------------| (x6)
D|12-------12-x--x--10-------10-x--x--10----10-10-|12-------12-x--x--10-------10-x--x--10----10-10-|

G|--------------------------------|--------------------------------|
D|--------------------------------|--------------------------------|
A|--------------------------------|--------------------------------|
D|0-----0-x-x-0-----0-x-x-5h7-7---|5-----5-x-x-5-----5-x-x-5h7-7---|\
                                   |(x2)
G|--------------------------------|--------------------------------|/
D|--------------------------------|------------------------5p4-----|
A|--------------------------------|----------------------------5h7-|
D|0-----0-x-x-7-----7-x-x-5h7-7---|5-----5-x-x-5-------------------|


Verse: (x2)

G|--------------------------------|--------------------------------|
D|--------------------------------|--------------------------------|
A|--------------------------------|--------------------------------|
D|0-----0-x-x-0-----0-x-x-5h7-7---|5-----5-x-x-5-----5-x-x-5h7-7---|

G|--------------------------------|--------------------------------|
D|--------------------------------|------------------------5p4-----|
A|--------------------------------|----------------------------5h7-|
D|0-----0-x-x-7-----7-x-x-5h7-7---|5-----5-x-x-5-------------------|


Chorus:

G|--------------------------------|--------------------------------|
D|--------------------------------|--------------------------------|
A|--------------------------------|--------------------------------|
D|0-----0-x-x-0-----0-x-x-5h7-7---|5-----5-x-x-5-----5-x-x-5h7-7---|

G|--------------------------------|--------------------------------|
D|--------------------------------|------------------------5p4-----|
A|--------------------------------|----------------------------5h7-|
D|0-----0-x-x-7-----7-x-x-5h7-7---|5-----5-x-x-5-------------------|

G|--------------------------------|--------------------------------|
D|--------------------------------|--------------------------------|
A|--------------------------------|--------------------------------|
D|0-----0-x-x-0-----0-x-x-5h7-7---|5-----5-x-x-5-----5-x-x-5h7-7---|

G|--------------------------------|--------------------------------||
D|--------------------------------|--------------------------------||
A|--------------------------------|--------------------------------||
D|0-----0-x-x-7-----7-x-x-5h7-7---|5-----5-x-x-5-------------------||




************************************

| x  Dead note
| h  Hammer-on
| p  Pull-off

************************************

Find guitar tabs and chords

A B C D E F G H I J K L M N O P Q R S T U V W X Y Z #