Desert Rambler by Hum

Desert Rambler tab by Hum

Guitar tabs

Tuning: Standard (E A D G B E)

Slide at the start then...

  d|--------------------------------|
  a|--------------------------------|
GTR F|--------------------------------|
 1 C|-5-5-7-5--5----5-5-7-5--7-5-5-7-|
  G|-5-3-5-5--3----5-3-5-5--5-3-5-5-|
  C|-5-----5-------5-----5------5---|

  d|---------------------------------------------|
  a|-------------------------------------12--12--|
GTR F|-12-12-12-12-12-12-12-12-12-12-12-11-11--11--|
 2 C|-12-12-12-12-12-12-12-12-12-12-12-12-12--12--|
  G|---------------------------------------------|
  C|---------------------------------------------|

  d|----------------------------|
  a|----------------------------|
GTR F|----------------------------|
 1 C|-5-7-5--5----5-5-7-5--7--7--|
  G|-3-5-5--3----5-3-5-5--5--5--|
  C|-----5-------5-----5--------|

  d|---------------------------------------------|
  a|-------------------------------------12--12--|
GTR F|-12-12-12-12-12-12-12-12-12-12-12-11-11--11--|
 2 C|-12-12-12-12-12-12-12-12-12-12-12-12-12--12--|
  G|---------------------------------------------|
  C|---------------------------------------------|

Play one after the ther 14x

  d|---------------------|
  a|---------------------|
GTR F|----------7--9-------|
 1 C|-10----10------9*----| x4
  G|----10------------9*-|
  C|---------------------|

Palm mute harmonics. Only one guitar in this part.

Play this before vocals come in, then...

  d|---------------------------|
  a|---------------------------|
GTR F|----------7--9-------------|
 1 C|-10----10------9*-------10-| x3
  G|----10------------9*-------|
  C|---------------------------|

  d|-----------------------|
  a|-----------------------|
GTR F|----------7--9-7-9-----|
 1 C|-10----10-----------10-| x1
  G|----10-----------------|
  C|-----------------------|

  d|-------------------------------------------------|
  a|-------------------------------------------------|
GTR F|---------0--------------------------0--0-0-------|
 1 C|------0------------0--5/7--------0-----0-0-4--2--| x4
  G|-------------------------------------------------|
  C|-0-0----------0-0-----------0-0------------------|

  d|--------------------------|
  a|--------------------------|
GTR F|----------7--9-7----------|
 1 C|-10----10--------10----10-| 1,5
  G|----10--------------------|
  C|--------------------------|

  d|----------------------------------------|
  a|----------------------------------------|
GTR F|----------7--9-7------------------------|
 1 C|-10----10--------10---10-10-10-10-10-10-| 2,3,4,6,7,8
  G|----10----------------------------------|
  C|----------------------------------------|

  d|---------------------------------------------------|
  a|---------------------------------------------------|
GTR F|----------7--9-7--------------------7--9-7---------|
 1 C|-10----10--------10----10-10-----10--------10------| x2
  G|----10------------------------10-------------------|
  C|---------------------------------------------------|

  d|---------------------------------|
  a|---------------------------------|
GTR F|---------------------------------|
 1 C|--5-5-7-5--5----5-5-7-5--7-5-5-7-|
  G|--5-3-5-5--3----5-3-5-5--5-3-5-5-|
  C|-/5-----5-------5-----5------5---|

  d|---------------------------------------------|
  a|-------------------------------------12--12--|
GTR F|-12-12-12-12-12-12-12-12-12-12-12-11-11--11--|
 2 C|-12-12-12-12-12-12-12-12-12-12-12-12-12--12--|
  G|---------------------------------------------|
  C|---------------------------------------------|

  d|----------------------------|
  a|----------------------------|
GTR F|----------------------------|
 1 C|-5-7-5--5----5-5-7-5--7--7--|
  G|-3-5-5--3----5-3-5-5--5--5--|
  C|-----5-------5-----5--------|

  d|---------------------------------------------|
  a|-------------------------------------12--12--|
GTR F|-12-12-12-12-12-12-12-12-12-12-12-11-11--11--|
 2 C|-12-12-12-12-12-12-12-12-12-12-12-12-12--12--|
  G|---------------------------------------------|
  C|---------------------------------------------|

Play one after the other 8x

  d|----------------------------------------------------------------------------|
  a|----------------------------------------------------------------------------|
GTR F|----------------------------------------------------------------------------|
1+2 C|-0--0--0--0------0-0-0-0-0-0-0------0--0--0--0------0-0-0-0-0-5-5-5-5-5-5-5-|
  G|-0--0--0--0--0-0-0-0-0-0-0-0-0--0-0-0--0--0--0--0-0-0-0-0-0-0-5-5-3-3-3-3-5-|
  C|-0--0--0--0--0-0-0-0-0-0-0-0-0--0-0-0--0--0--0--0-0-0-0-0-0-0-5-5---------5-|
          * *        * *       * *

  d|-------------------------------------------|
  a|-------------------------------------------|
GTR F|-------------------------------------------|
1+2 C|-5p0-0-0--0--0------0-0-0--0-5-5-5-5-5-5-5-| x6
  G|-5p0-0-0--0--0--0-0-0-0-0--0-5-5-3-3-3-3-5-|
  C|-5p0-0-0--0--0--0-0-0-0-0--0-5-5---------5-|
           * *

  d|-------------------------------------------|
  a|-------------------------------------------|
GTR F|-------------------------------------------|
 1 C|-5p0-0-0--0--0------0-0-0--0-5-5-5-5-5-5-5-| 1,5
  G|-5p0-0-0--0--0--0-0-0-0-0--0-5-5-3-3-3-3-5-|
  C|-5p0-0-0--0--0--0-0-0-0-0--0-5-5---------5-|
           * *

  d|------------------------------------------|
  a|--------12--------------------------------|
GTR F|-----------12-11-------12-----------------|
 2 C|--------------------12----12--------------| 1,5
  G|------------------------------------------|
  C|------------------------------------------|

  d|-------------------------------------------|
  a|-------------------------------------------|
GTR F|-------------------------------------------|
 1 C|-5p0-0-0--0--0------0-0-0--0-5-5-5-5-------| 2,6
  G|-5p0-0-0--0--0--0-0-0-0-0--0-5-5-3-3--3BD--|
  C|-5p0-0-0--0--0--0-0-0-0-0--0-5-5-----------|
           * *

  d|------------------------------------------|
  a|--------12--------------------------------|
GTR F|-----------12-11-------12-----------------|
 2 C|--------------------12----12--------------| 2,6
  G|------------------------------------------|
  C|------------------------------------------|

  d|-------------------------------------------|
  a|-------------------------------------------|
GTR F|-------------------------------------------|
1+2 C|-5p0-0-0--0--0------0-0-0--0-5-5-5-5-5-5-5-| 3,4
  G|-5p0-0-0--0--0--0-0-0-0-0--0-5-5-3-3-3-3-5-|
  C|-5p0-0-0--0--0--0-0-0-0-0--0-5-5---------5-|
           * *

Find guitar tabs and chords

A B C D E F G H I J K L M N O P Q R S T U V W X Y Z #