Big Dipper by Hum

Big Dipper tab by Hum

Guitar tabs

BU = bend up BD = bend down

  e|-----------------------------------|
  B|-----------------------------------|
GTR G|-----------------------------------|
1+2 D|-0--0-0-0--------3--3-3-3-10-10-10-|
  A|-0--0-0-0-55-5-5-3--3-3-3-8--8--8--|
  D|-0--0-0-0-66-6-6-3--3-3-3-8--8--8--|

  e|-----------------------------------|
  B|-----------------------------------|
GTR G|-----------------------------------|
 1 D|-0--0-0-0--------3--3-3-3-10-10-10-|
  A|-0--0-0-0-55-5-5-3--3-3-3-8--8--8--|
  D|-0--0-0-0-66-6-6-3--3-3-3-8--8--8--|

  e|-----------------------------------|
  B|-----------------------------------|
GTR G|-777777777777777-------------------|
 2 D|-----------------3--3-3-3-10-10-10-|
  A|-555555555555555-3--3-3-3-8--8--8--|
  D|-----------------3--3-3-3-8--8--8--|

  e|------------------------------------------------------------------|
  B|------------------------------------------------------------------|
GTR G|-10-1010-10-101010-5-5-5-55-----------------------12-1212-12-1212-|
1+2 D|-------------------3-3-3-33-7-77-7-777-5-55-5-555-----------------|
  A|-8--8-8--8--8-8-8--3-3-3-33-5-55-5-555-3-33-3-333-10-1010-10-1010-|
  D|-------------------3-3-3-33-5-55-5-555-3-33-3-333-----------------|

  e|-----------------------------------|
  B|-----------------------------------|
GTR G|-----------------------------------|
 1 D|-0--0-0-0--------3--3-3-3-10-10-10-|
  A|-0--0-0-0-55-5-5-3--3-3-3-8--8--8--|
  D|-0--0-0-0-66-6-6-3--3-3-3-8--8--8--|

  e|-----------------------------------|
  B|-----------------------------------|
GTR G|-777777777777777-------------------|
 2 D|-----------------3--3-3-3-10-10-10-|
  A|-555555555555555-3--3-3-3-8--8--8--|
  D|-----------------3--3-3-3-8--8--8--|

  e|------------------------------------------------------------------|
  B|------------------------------------------------------------------|
GTR G|-10-1010-10-101010-5-5-5-55-----------------------12-1212-12-1212-|
1+2 D|-------------------3-3-3-33-7-77-7-777-5-55-5-555-----------------|
  A|-8--8-8--8--8-8-8--3-3-3-33-5-55-5-555-3-33-3-333-10-1010-10-1010-|
  D|-------------------3-3-3-33-5-55-5-555-3-33-3-333-----------------|

  e|------------------------------------------------------|
  B|------------------------------------------------------|
GTR G|-12-12121212-14-14141414141414------------------------|
 1 D|-10-10101010-12-12121212121212-10-1010-5-55-3-33-0-00-|
  A|-10-10101010-12-12121212121212-8--1010-5-55-3-33-0-00-|
  D|-10-10101010-12-12121212121212-8--8-8--5-55-3-33-0-00-|

  e|------------------------------------------------------|
  B|------------------------------------------------------|
GTR G|------------------------------------------------------|
 2 D|-------------------------------10-1010-5-55-3-33-0-00-|
  A|-------------------------------8--8-8--5-55-3-33-0-00-|
  D|-------------------------------8--8-8--5-55-3-33-0-00-|

  e|------------------------|
  B|------------------------|
GTR G|------------------------|
1+2 D|-10-1010-5-55-3-33-0-00-|
  A|-8--8-8--5-55-3-33-0-00-|
  D|-8--8-8--5-55-3-33-0-00-|

  e|-------------------------|
  B|-------------------------|
GTR G|-7-----7-777-7BU(8)BD(7)-|
1+2 D|----0--------------------|
  A|-5--0--5-555-------------|
  D|----0--------------------|

  e|-------------------------------------|
  B|-------------------------------------|
GTR G|-14-1414-14-1414-1414-14BU(15)BD(14)-|
1+2 D|-------------------------------------| x3
  A|-12-1212-12-1212-1212----------------|
  D|-------------------------------------|

  e|-----------------------------------|
  B|-----------------------------------|
GTR G|-----------------------------------|
 1 D|-0--0-0-0--------3--3-3-3-10-10-10-|
  A|-0--0-0-0-55-5-5-3--3-3-3-8--8--8--|
  D|-0--0-0-0-66-6-6-3--3-3-3-8--8--8--|

  e|---------------------------------------------------------------------------|
  B|---------------------------------------------------------------------------|
GTR G|---------------------------------------------------------------------------|
 2 D|-guitar noise--------------------------------------------------------------|
  A|---------------------------------------------------------------------------|
  D|---------------------------------------------------------------------------|

  e|------------------------------------------------------------------|
  B|------------------------------------------------------------------|
GTR G|-10-1010-10-101010-5-5-5-55-----------------------12-1212-12-1212-|
1+2 D|-------------------3-3-3-33-7-77-7-777-5-55-5-555-----------------|
  A|-8--8-8--8--8-8-8--3-3-3-33-5-55-5-555-3-33-3-333-10-1010-10-1010-|
  D|-------------------3-3-3-33-5-55-5-555-3-33-3-333-----------------|


e|---------------------------------------------------------------------------|
B|---------------------------------------------------------------------------|
G|---------------------------------------------------------------------------|
D|-8-88-8-888-777-7-77-5-55-5-55-3-33-3-33-33-3-33-3-33-3-33-33-3-33---------|
A|-8-88-8-888-777-7-77-5-55-5-55-3-33-3-33-33-3-33-3-33-3-33-33-3-33---------|
D|-8-88-8-888-777-7-77-5-55-5-55-3-33-3-33-33-3-33-3-33-3-33-33-3-33---------|

e|---------------------------------------------------------------------------|
B|---------------------------------------------------------------------------|
G|---------------------------------------------------------------------------|
D|---------------------------------------------------------------------------|
A|---------------------------------------------------------------------------|
D|---------------------------------------------------------------------------|

e|---------------------------------------------------------------------------|
B|---------------------------------------------------------------------------|
G|---------------------------------------------------------------------------|
D|---------------------------------------------------------------------------|
A|---------------------------------------------------------------------------|
D|---------------------------------------------------------------------------|

e|---------------------------------------------------------------------------|
B|---------------------------------------------------------------------------|
G|---------------------------------------------------------------------------|
D|---------------------------------------------------------------------------|
A|---------------------------------------------------------------------------|
D|---------------------------------------------------------------------------|

e|---------------------------------------------------------------------------|
B|---------------------------------------------------------------------------|
G|---------------------------------------------------------------------------|
D|---------------------------------------------------------------------------|
A|---------------------------------------------------------------------------|
D|---------------------------------------------------------------------------|

Find guitar tabs and chords

A B C D E F G H I J K L M N O P Q R S T U V W X Y Z #