Log in

One click and you are in

Login with Facebook Login with Google

Why sign up and log in

Guitar Tabs Explorer
Rancheros Huevos tabs for Get outta dodge

Guitar tabs

From Barbara_Solomon@bc.sympatico.ca Mon May 12 13:56:48 1997

Transcribed by Nate Reilly
>From the Album of the Same name
                            Get Outta Dodge!!
                                                     By Huevos Rancheros


    Lick 1             Verse 1
E---|--8---7--6--5--|-----------------------------|---------------------
B---|--8---7--6--5--|-----------------------------|---------------------
G---|--9---8--7--5--|-----------------------------|---------------------
D---|--10--9--8--7--|--0--0--0--2--0--------------|-----0--0--0--2------
A---|--10--9--8--7--|-----------------3--3--3--0--|--3------------------
E---|--8---7--6--5--|-----------------------------|---------------------


                                              Cminor
E------------|-----------------------------|--------------------|-------
B------------|-----------------------------|--------------------|-------
G------------|-----------------------------|--------0--------0--|-------
D---0-----0--|--0--0--0--2--0--------------|-----2--------0-----|-------
A------3-----|-----------------3--3--3--0--|--3--------2--------|-------
E------------|-----------------------------|--------------------|-------


    Lick 1      Verse 2
E------------|--------------------------------|-------------------------
B------------|--3--3--3--5--3--1--1--1-----1--|-----3--3--3--5--3--1----
G------------|--------------------------2-----|--2----------------------
D------------|--------------------------------|-------------------------
A------------|--------------------------------|-------------------------
E------------|--------------------------------|-------------------------

                                                          Lick 1
E---|-----------------------|--------------------------|-----------|----
B---|-----3--3--3--5--3--1--|--------------------------|-----------|----
G---|--2--------------------|--5--5--5~~~--4--4--4~~~--|-----------|----
D---|-----------------------|--------------------------|-----------|----
A---|-----------------------|--------------------------|-----------|----
E---|-----------------------|--------------------------|-----------|----


    Verse 3
E------------------------------|-----------------------|----------------
B---7--7--7--9--7--6--6--6-----|-----7--7--7--9--7--6--|--7--7--7--9----
G---------------------------7--|--7--------------------|----------------
D------------------------------|-----------------------|----------------
A------------------------------|-----------------------|----------------
E------------------------------|-----------------------|----------------


                                                 Lick 1      Lick 2
E------------------|--------------------------|-----------|--9---8------
B---7--6--6--6-----|--------------------------|-----------|--9---8------
G---------------7--|--9--9--9~~~--7--7--7~~~--|-----------|--10--9------
D------------------|--------------------------|-----------|--11--10-----
A------------------|--------------------------|-----------|--11--10-----
E------------------|--------------------------|-----------|--9---8------


             Lick 1      Outro
E---7--6--|-----------|--------------------------|----------------------
B---7--6--|-----------|--------------------------|----------------------
G---8--6--|-----------|--------------------------|----------------------
D---9--8--|-----------|--------------------------|----------------------
A---9--8--|-----------|--------------------------|----------------------
E---7--6--|-----------|--8--7--6--5--8--7--6--5--|----------------------




I will take requests of Vancouver bands and maybe a few others, but you
have to mail me at cornoholic@hotmail.com

Almost there ...

Sign in to get your own page with links to favourite songs and more. You are just one click away...

Login with Facebook Login with Google