Gravity by Hsker D

Gravity bass tab by Hsker D

Bass tabs

-------------------------------------------------------------------------------
			  Hüsker Dü - Gravity
-------------------------------------------------------------------------------

Tabbed By : Extra Blood
e-mail: Lenda@ofir.dk

A pretty simple song to play. I suggest
that you listen it through thoug. Have fun
playing, and please leave a rating or a
comment behind :)
-------------------------------------------------------------------------------

Order of the song:

Intro
Verse
Chorus
Intro
Verse
Chorus
Solo / Outro

Intro:

G-|-----------------|-----------------|-----------------|-----------------|
D-|-----------------|-----------------|-----------------|-----------------|
A-|--R---E---S---T--|--R---E---S---T--|--R---E---S---T--|--R---E---S---T--|
E-|-----------------|-----------------|-----------------|-----------------|

G-|---------------7-|-7-7-7-7---------|---------------7-|-7-7-7-7---------|
D-|---------7-7-7---|---------7-7-7-7-|---------7-7-7---|---------7-7-7-7-|
A-|-5-5-5-5---------|-----------------|-5-5-5-5---------|-----------------|
E-|-----------------|-----------------|-----------------|-----------------|

G-|---------------7-|-7-7-7-7---------|---------------7-|-7-7-7-7---------|
D-|---------7-7-7---|---------7-7-7-7-|---------7-7-7---|---------7-7-7-7-|
A-|-5-5-5-5---------|-----------------|-5-5-5-5---------|-----------------|
E-|-----------------|-----------------|-----------------|-----------------|

Verse:

G-|---------------7-|-7-7-7-7---------|---------------7-|-7-7-7-7---------|
D-|---------7-7-7---|---------7-7-7-7-|---------7-7-7---|---------7-7-7-7-|
A-|-5-5-5-5---------|-----------------|-5-5-5-5---------|-----------------|
E-|-----------------|-----------------|-----------------|-----------------|

G-|-----------------|-----------------|---------------7-|-7-7-7-7---------|
D-|-----------------|-----------------|---------7-7-7---|---------7-7-7-7-|
A-|-----------------|-----------------|-5-5-5-5---------|-----------------|
E-|-7\-33/--77\-33/-|-77\-33/-77-5--5-|-----------------|-----------------|

G-|---------------7-|-7-7-7-7---------|-----------------|-----------------|
D-|---------7-7-7---|---------7-7-7-7-|-----------------|-----------------|
A-|-5-5-5-5---------|-----------------|-----------------|-----------------|
E-|-----------------|-----------------|-7\-33/--77\-33/-|-77\-33/-77-5--5-|

Chorus:

G-|-----------------|-----------------|
D-|-----------------|-----------------|
A-|------5-------7\-|------4-2--2-2-2-|
E-|-3-3-3-5-5-5-5---|-2-2-2-----------|

G-|-----------------|-----------------|
D-|-----------------|-3------5-55-5-5-|
A-|-3------5-55-5-5-|-----------------|
E-|-----------------|-----------------|

G-|-3------5--------|-----------------|
D-|-----------------|*---------------*| x 4
A-|-----------------|*-50---------(0)*|
E-|-----------------|-----------------|

Solo / Outro

G-|-----------------|-----------------|-----------------|-----------------|
D-|-----------------|-----------------|-5-5-5-5-5-5-5-5-|-7-7-7-7-7-7-7-7-|
A-|-5-5-5-5-5-5-5-5-|-7-7-7-7-7-7-7-7-|-----------------|-----------------|
E-|-----------------|-----------------|-----------------|-----------------|

Find guitar tabs and chords

A B C D E F G H I J K L M N O P Q R S T U V W X Y Z #