Log in

One click and you are in

Login with Facebook Login with Google

Why sign up and log in

Guitar Tabs Explorer
Hp Lovecraft bass tabs for The drifter

Bass tabs

The Drifter.btab
HP Lovecraft
TablEdited by Poppamies

Tuning : E A D G 	Time Signature: 4/4

 tempo 148    |    |    |    |    |    |
|------------7-------5-----------|----------------------------7---|
|----------------------------7---|5-----------6-------7-----------|
|5-------------------------------|--------5-----------------------|
|--------------------------------|--------------------------------|

 |    |    |    |    |    |    |    |
|------------7---7---5-----------|----------------------------7---|
|----------------------------7---|5-----------6-------7-----------|
|5-------------------------------|--------5-----------------------|
|--------------------------------|--------------------------------|

 |    |    |    |    |    |    |    |
|------------7---7---5-----------|----------------------------7---|
|----------------------------7---|5-----------6-------7-----------|
|5-------------------------------|--------5-----------------------|
|--------------------------------|--------------------------------|

 |    and so on...  |
|--------------------------------|
|--------------------------------|
|5-------------------------------|
|--------------------------------|

Almost there ...

Sign in to get your own page with links to favourite songs and more. You are just one click away...

Login with Facebook Login with Google