Log in

One click and you are in

Login with Facebook Login with Google

Why sign up and log in

Guitar Tabs Explorer
Hozier guitar tabs for Be

Guitar tabs with lyrics

Tuning: Standard (E A D G B E)


Intro:

e|---------------------------------------------------------------------------------------|
B|---------------------------------------------------------------------------------------|
G|---------------------------------------------------------------------------------------|
D|-----------5----5h7----7h9----------------------5----------------------------5---------|
A|-7-7--5h6---7------7------7--5h6-7--7-7--5h6-7----7-5-4---4-5-6--7-7--5h6-7----7-------|
E|-------------------------------------------------------7-------------------------------|

e|--------------------------------------------------------|
B|--------------------------------------------------------|
G|--------------------------------------------------------|
D|-5h7----7h9----------------------5-----7---7h9-7--5-----|
A|-----7------7--5h6-7--7-7--5h6-7----7-6---7-------------|
E|--------------------------------------------------------|



Verse 1:

e|---------------------------------------------------------------------------------------|
B|---------------------------------------------------------------------------------------|
G|---------------------------------------------------------------------------------------|
D|-----------5----5h7----7h9----------------------5----------------------------5---------|
A|-7-7--5h6---7------7------7--5h6-7--7-7--5h6-7----7-5-4---4-5-6--7-7--5h6-7----7-------|
E|-------------------------------------------------------7-------------------------------|

e|--------------------------------------------------------                --------------------------|
B|--------------------------------------------------------                --------------------------|
G|--------------------------------------------------------                --------------------------|
D|-5h7----7h9----------------------5-----7---7h9-7--5----- x2 (full riff) --------------------------|
A|-----7------7--5h6-7--7-7--5h6-7----7-6---7----------7--                -7-7-7-7-7-7-7------------|
E|--------------------------------------------------------                --------------------------|

When all the worst we fear lets fall its weight

When the gyre widens on and when the wave breaks

When St. Peter loses cool and bars the gates

When Atlas acts the maggot, makes his arms shake

When the birds are heard again in their singin'

Once atrocity is hoarse from voicin’ shame

And when the earth is trembling on some new beginnin'

With the same sweet shock of when Adam first came


Pre-Chorus:
    A chord diagramE minorEm           A chord diagramG MajorG            A chord diagramC majorC             A chord diagramA minorAm
e|------|    e|---3--|    e|------|     e|------|
B|------|    B|------|    B|---1--|     B|---1--|
G|------|    G|------|    G|------|     G|---2--|
D|---2--|    D|------|    D|---2--|     D|---2--|
A|---2--|    A|---2--|    A|---3--|     A|------|
E|------|    E|---3--|    E|------|     E|------|

A chord diagramE minorEm
Be, be, be, be, be
A chord diagramG MajorG
Be as you've always been
A chord diagramC majorC
Be, be, be, be, be
A chord diagramA minorAm
Be as you’ve always been
 (Lover, be good to me)


A chord diagramE minorEm
Be as you've always been (Lover, be good to me)
A chord diagramG MajorG
Be like the love that discovered the sin (Lover, be good to me)
A chord diagramC majorC                                 A chord diagramA minorAm
That freed the first man and will do so again
A chord diagramE minorEm
And, lover, be good to me (Lover, be good to me)
A chord diagramE minorEm
Be that hopeful feeling when Eden was lost (Lover, be good to me)
A chord diagramG MajorG
It's been deaf to our laughter since the master was crossed (Lover, be good to me)
A chord diagramC majorC                             A chord diagramA minorAm
Which side of the wall really suffers that cost?
A chord diagramE minorEm
Oh, lover, be good to me


Intermision:                                                              Verse 2:
e|--------------------------------------------------------------           --------------------------|
B|--------------------------------------------------------------           --------------------------|
G|--------------------------------------------------------------           --------------------------|
D|-----------5----5h7----7h9------------------------5-----------           ------------------5-------|
A|-7-7--5h6-7----7------7------7--5h6-7--7-7--5h6-7---7--5-4----           -4-5-6--7-7--5h6-7----7---|
E|-----------------------------------------------------------7--           --------------------------|

e|--------------------------------------------------------------------------------------|
B|--------------------------------------------------------------------------------------|
G|--------------------------------------------------------------------------------------|
D|--5h7--7h9------------------------5------------------------------5----5h7----7h9------|
A|------7------7--5h6-7--7-7--5h6-7---7--5-4----4-5-6--7-7--5h6-7----7------7------7----|
E|-------------------------------------------7------------------------------------------|

e|---------------------------------------------------------------------------------------|
B|---------------------------------------------------------------------------------------|
G|---------------------------------------------------------------------------------------|
D|--------------------5-----7---7h9-7--5---------------5----5h7----7h9-------------------|
A|--5h6-7--7-7--5h6-7----7-6---7----------7-7--5h6-7----7------7------7--5h6-7---7-7-----|
E|---------------------------------------------------------------------------------------|

e|---------------------------------------------------------------------------------------------------------|
B|---------------------------------------------------------------------------------------------------------|
G|---------------------------------------------------------------------------------------------------------|
G|-------5-------------------------------5---5h7---7h9---------------------5------7--7h9-7-5---------------|
A|-5h6-7----7--5-4----4-5-6--7-7--5h6-7---7-----7-----7--5h6-7--7-7--5h6-7----7-6--7--------7-7-7-7-7-7-7-7|
E|-----------------7---------------------------------------------------------------------------------------|


When the man who gives the order

Is born next time 'round on the boat sent back

When the bodies starvin' at the border

Are on TV givin' people the sack

Oh, when the sea rises to meet us

Oh, when there's nothin' left for you and I to do

Oh, when there’s nobody upstairs to receive us

When I have no kind words left, love for you

   A chord diagramE minorEm           A chord diagramG MajorG            A chord diagramC majorC             A chord diagramA minorAm
e|------|    e|---3--|    e|------|     e|------|
B|------|    B|------|    B|---1--|     B|---1--|
G|------|    G|------|    G|------|     G|---2--|
D|---2--|    D|------|    D|---2--|     D|---2--|
A|---2--|    A|---2--|    A|---3--|     A|------|
E|------|    E|---3--|    E|------|     E|------|

A chord diagramE minorEm
Be, be, be, be, be
A chord diagramG MajorG
Be as you've always been
A chord diagramC majorC
Be, be, be, be, be
A chord diagramA minorAm
Be as you’ve always been
 (Lover, be good to me)


A chord diagramE minorEm
Ah, be love in its disrepute (Lover, be good to me)
A chord diagramG MajorG
Scorches the hillside and salts every root (Lover, be good to me)
A chord diagramC majorC                           A chord diagramA minorAm
And watches the slowin’ and starvin' of troops
A chord diagramE minorEm
And, lover, be good to me (Lover, be good to me)
A chord diagramE minorEm
Be there and just as you stand (Lover, be good to me)
A chord diagramG MajorG
Or be like the rose that you hold in your hand (Lover, be good to me)
A chord diagramC majorC                                   A chord diagramA minorAm
That will grow bold in a barren and desolate land
A chord diagramE minorEm
Oh, lover, be good to me


                   A chord diagramE minorEm
Love, won't you be

Love, won't you be
             A chord diagramG MajorG
Be as you’ve always been?
                 A chord diagramC majorC
Love, won't you be
                A chord diagramA minorAm
Love, won't you be
             A chord diagramE minorEm
Be as you've always been?
                A chord diagramE minorEm
Love, won't you be

Love, won't you be
             A chord diagramG MajorG
Be as you've always been?
                A chord diagramC majorC
Love, won't you be
                A chord diagramA minorAm
Love, won't you be
             A chord diagramE minorEm
Be as you've always been?
                     A chord diagramE minorEm  (let it fade out)
(Lover be good to me)


************************************

| h  Hammer-on


************************************

Other versions of Be

BeChords
Better loveChords

↓ Add and view comments below ↓

What do you think about this song and these tabs?

Add your comments, questions, rant or a thumbs up below.

Almost there ...

Sign in to get your own page with links to favourite songs and more. You are just one click away...

Login with Facebook Login with Google