GuitarTabsExplorer icon
GuitarTabsExplorer icon

Log in

Songbook

  • Log in to add and see bookmarks

Last visited songs

  • No songs visited yet...
Cactus Boogie by Steve Howe

Tabs

Cactus Boogie
                by Steve Howe
         (as performed on 'Not Necessarily Acoustic')
        transcribed by Carl Christensen ([email protected])


||---5--------5--------10----------12----------|----------------------------
||------7--------7---------12----------14------|----------------------------
||*--------9--------9----------14----------16--|----------------------------
||*--------------------------------------------|----------------------------
||---0-----------------------------------------|----------------------------
||---------------------------------------------|----------------------------
5--------5--------10----------12--|-----------------------------------------
---7--------7---------12------14--|-----------------------------------------
------9--------9----------14--16--|-----------------------------------------
----------------------------------|-----------------------------------------
0---------------------------------|-----------------------------------------
----------------------------------|-----------------------------------------


5--------5--------10----------12----------|--2--------4---------------------
---7--------7---------12----------14------|-----3--------5------------------
------9--------9----------14----------16--|--------4--------4---------------
------------------------------------------|--4--------6---------------------
0-----------------------------------------|---------------------------------
------------------------------------------|---------------------------------


||------5--------------10---------12------------------------|---------------
||------7-----7---------------------------------------------|---------------
||*--------------6---------11---------13--------------------|---------------
||*-----4--------4---------9----------11--------------------|---------------
||---0--------------0---------------------------------------|---------------
||---------0-------------------0----------------------------|---------------


  2nd time 8va..........
----5--------------10------12------|----------------------------------------
----7-----7------------------------|----------------------------------------
-------------6---------11------13--|----------------------------------------
----4--------4---------9-------11--|----------------------------------------
0---------------0------------------|----------------------------------------
-------0-------------------0-------|----------------------------------------
  2nd time 8va......
----5--------------10---------12--------------------------------------------
----7-----5-----------------------------------------------------------------
-------------6---------11---------13----------------------------------------
----4--------4---------9----------11----------------------------------------
0---------------0-----------------------------------------------------------
-------0-------------------0------------------------------------------------


1------------------------------------------
-|-----10---------12---------5---------||-----------------------------------
-|---------------------------7---------||-----------------------------------
-|---------11---------13--------------*||-----------------------------------
-|---------9----------11-----4-----4--*||-----------------------------------
-|--0---------------------0------------||-----------------------------------
-|-------------0----------------0------||-----------------------------------


2---VII----------
----------------------------------------|-----------------------------------
--------7--------9------10--------------|-----------------------------------
-----------7--------9-------9-------9---|-----------------------------------
----------------------------11------11--|-----------------------------------
-----------9--------11--12--------------|-----------------------------------
-----7--------0-----------------12------|-----------------------------------


----------------------------------------|-----------------------------------
----10----------8--------5--------3-----|-----------------------------------
--------9----------7--------4--------2--|-----------------------------------
--------11---------9--------6--------4--|-----------------------------------
12----------10--------7--------5--------|-----------------------------------
----------------------------------------|-----------------------------------


-------------------------------------|--------------------------------------
-------10----------8-----5-----------|--------------------------------------
-----------9----------7-----4-----4--|--------------------------------------
-----------11---------9-----6-----6--|--------------------------------------
---12----------10--------7-----------|--------------------------------------
-------------------------------0-----|--------------------------------------


14--17--14-----12--15--12-----9--12--9-----7--10--7-----|-------------------
--------------------------------------------------------|-------------------
--------------------------------------------------------|-------------------
--------------------------------------------------------|-------------------
--------------------------------------------------------|-------------------
--------------------------------------------------------|-------------------


2--5--2-----3--6--3-----4--7--4--7--|---------------------------------------
------------------------------------|---------------------------------------
------------------------------------|---------------------------------------
------------------------------------|---------------------------------------
------------------------------------|---------------------------------------
------------------------------------|---------------------------------------


4-5-----------------------------------|-------------------------------------
6-7-----------------------------------|-------------------------------------
5/6-----------------------------------|-------------------------------------
6-7-----------------------------------|-------------------------------------
-----4--0--2--0-----------------------|-------------------------------------
-----------------2--0--2--0--2--0-----|-------------------------------------


4-5-----------------------------------------|-------------------------------
6-7-----------------------------------------|-------------------------------
5/6-----------------------------------------|-------------------------------
6-7--4--2--4--2-----------------------------|-------------------------------
-----------------------4--0--2--0--2--4-----|-------------------------------
--------------------------------------------|-------------------------------


4-5-------------------------------------------------------------------------
6-7-------------------------------------------------------------------------
5/6--2-----2--2--------2--2--------------------2--2-------------------------
6-7--------------4--2--------4--4--2--2--4--2--------4--4--2--2-------------
-----------------------------------------------------------------3p0--------
----------------------------------------------------------------------0-----


------|---------------------------------------------------------------------
------|---------------------------------------------------------------------
------|---------------------------------------------------------------------
------|---------------------------------------------------------------------
------|---------------------------------------------------------------------
2--4--|---------------------------------------------------------------------


---5--------------10---------12---------17----------------10------12--------
---7-----7------------------------------19-----19---------------------------
------------6---------11---------13----------------18---------11------13----
---4--------4---------9----------11-----16---------16---------9-------11----
0--------------0---------------------0-----------------0--------------------
------0-------------------0-----------------0---------------------0---------


|-----17----------------10---------12------|--------------------------------
|-----19-----19----------------------------|--------------------------------
|----------------18---------11---------13--|--------------------------------
|-----16---------16---------9----------11--|--------------------------------
|--0-----------------0---------------------|--------------------------------
|---------0---------------------0----------|--------------------------------


  VII
---------------------------------------|------------------------------------
-------7--------9------10--------------|------------------------------------
----------7--------9-------9-------9---|------------------------------------
---------------------------11------11--|------------------------------------
----------9--------11--12--------------|------------------------------------
----7--------0-----------------12------|------------------------------------


s
--------------------------------------------|-------------------------------
--------------------------------------------|-------------------------------
2p0---p-p-----------------------------------|-------------------------------
-----2-1-0-----2---h---0--------------------|-------------------------------
------------3-----3-4-----3--0--2--0--------|-------------------------------
--------------------------------------2--0--|-------------------------------


muted
-------------------------------------------------|--------------------------
-------------------------------------7--6--7--6--|--------------------------
-------------------------6--5--4-----------------|--------------------------
-------------7--6--5--4-----------7--------------|--------------------------
-7--6--5--4--------------------------------------|--------------------------
-------------------------------------------------|--------------------------


---5--------------10---------12---------17----------------10------12--------
---7-----7------------------------------19-----19---------------------------
------------6---------11---------13----------------18---------11------13----
---4--------4---------9----------11-----16---------16---------9-------11----
0--------------0---------------------0-----------------0--------------------
------0-------------------0-----------------0---------------------0---------


   e   s
|-----12-----11--10------10--12--10--11--10------10--12--10--11--10--|------
|--------------------13----------------------13----------------------|------
|--------------------------------------------------------------------|------
|--------------------------------------------------------------------|------
|--------------------------------------------------------------------|------
|--------------------------------------------------------------------|------


11--10------10------------------------------------------------|-------------
--------13------13------10------10----------------------------|-------------
--------------------12------12------12--9---------------------|-------------
-------------------------------------------12--10------12-----|-------------
---------------------------------------------------12---------|-------------
--------------------------------------------------------------|-------------


---------5--------------10---------12---------17----------------10----------
---------7-----7------------------------------19-----19---------------------
------------------6---------11---------13----------------18---------11------
---------4--------4---------9----------11-----16---------16---------9-------
------0--------------0---------------------0-----------------0--------------
------------0-------------------0-----------------0-------------------------


       strum freely
12------|--0------0-----|---------------------------------------------------
--------|--3------2-----|-----------8\7--------------6\5--------------------
----13--|--0------0-----|--------6----------------4-------------------------
----11--|--2------2-----|-----5----------------3----------------------------
--------|--0------0-----|--4-------------3--2-------------1-----------------
0-------|---------------|---------------------------------------------------


||------5--------------10---------12---------|------------------------------
||------7-----7------------------------------|------------------------------
||*--------------6---------11---------13-----|------------------------------
||*-----4--------4---------9----------11-----|------------------------------
||---0--------------0------------------------|------------------------------
||---------0-------------------0-------------|------------------------------


  2nd time 8va..........
----5--------------10------12------|----------------------------------------
----7-----7------------------------|----------------------------------------
-------------6---------11------13--|----------------------------------------
----4--------4---------9-------11--|----------------------------------------
0---------------0------------------|----------------------------------------
-------0-------------------0-------|----------------------------------------


  2nd time 8va......
----5--------------10---------12--------------------------------------------
----7-----5-----------------------------------------------------------------
-------------6---------11---------13----------------------------------------
----4--------4---------9----------11----------------------------------------
0---------------0-----------------------------------------------------------
-------0-------------------0------------------------------------------------


1------------------------------------------
-|-----10---------12---------5---------||-----------------------------------
-|---------------------------7---------||-----------------------------------
-|---------11---------13--------------*||-----------------------------------
-|---------9----------11-----4-----4--*||-----------------------------------
-|--0---------------------0------------||-----------------------------------
-|-------------0----------------0------||-----------------------------------


2---VII----------
----------------------------------------|-----------------------------------
--------7--------9------10--------------|-----------------------------------
-----------7--------9-------9-------9---|-----------------------------------
----------------------------11------11--|-----------------------------------
-----------9--------11--12--------------|-----------------------------------
-----7--------0-----------------12------|-----------------------------------


----------------------------------------|---------------------------|-------
----10----------8--------5--------3-----|---------10----------8-----|-------
--------9----------7--------4--------2--|-------------9----------7--|-------
--------11---------9--------6--------4--|-------------11---------9--|-------
12----------10--------7--------5--------|-----12----------10--------|-------
----------------------------------------|---------------------------|-------


---0-----------------------|-----0-----------------------|------------------
---0-----3--0-----2--0-----|-----0-----3--0-----2--0-----|------------------
---1-----1--1-----1--1-----|-----1-----1--1-----1--1-----|------------------
------------0-----0-----0--|--------------0-----0-----0--|------------------
------2--------------------|--------2--------------------|------------------
0--------------0-----------|--0--------------0-----------|------------------


----------------------------------------|-----------------------------------
----------------------------------------|-----------------------------------
----------------------------------------|-----------------------------------
2p0-----2p0-----2p0-----2p0-----2-------|-----------------------------------
-----2-------2-------2-------2-------0--|-----------------------------------
-----------------------------------4h---|-----------------------------------


10--9--10--9--7------7------7/9-------|-------------------------------------
-----------------10-----10------------|-------------------------------------
--------------------------------------|-------------------------------------
--------------------------------------|-------------------------------------
-----------------------------------0--|-------------------------------------
---------------------------------4h---|-------------------------------------


14--12--14--12------------------------------|-------------------------------
----------------14--10--12--10--12/14-------|-------------------------------
--------------------------------------------|-------------------------------
--------------------------------------------|-------------------------------
-----------------------------------------0--|-------------------------------
---------------------------------------4h---|-------------------------------


17--14--17--14----------17-----14---------|---------------------------------
----------------17--14----------------17--|---------------------------------
------------------------------------------|---------------------------------
------------------------------------------|---------------------------------
------------------------------------------|---------------------------------
------------------------------------------|---------------------------------


--------------------------14-----17-----14----------|-----------------------
-------14-----------------------------------17--14--|-----------------------
16------------16--14--------------------------------|-----------------------
----------------------14----------------------------|-----------------------
----------------------------------------------------|-----------------------
----------------------------------------------------|-----------------------


     Very fast 16th's
----------------------------------------------------------------------------
------------------------------------------------------------------15--14----
------------------------------------------13--11------11--13--14------------
------------------12--11------11--12--14----------14------------------------
--------------12----------14------------------------------------------------
----------14----------------------------------------------------------------


        Slower                 q
|---------------12-----14-----16-----17--------|--12--r--4-5--||------------
|--12--14--15----------------------------------|--10--e--6-7--||------------
|----------------------------------------------|--11--s--5/6--||------------
|----------------------------------------------|--11--t--6-7--||------------
|----------------------------------------------|-----------0--||------------
|----------------------------------------------|--------------||------------



============================================================================
==    Created with the a shareware version of the BUCKET 'O TAB    ==
==        tablature creation software for Windows         ==
==             For more information:             ==
==            email: [email protected]            ==
==  US Mail: The Bucket, 3176-B5 Summit Square Dr., Oakton, VA 22124  ==
============================================================================

[ Privacy | About us ]

Welcome to the guitar community

Why join and log in?
- Get songbook with favourite songs
- Get custom made front page
- Submit chords and tabs
- Submit guitar-cover videos
- Get a lot of thumbs up for your work

Songbook

Last visited songs

Site
Home
Search
Community
Submit chords

Video

No video for this page. Check out how you can submit guitar-cover videos here

Search tabs and chords

Browse by artist

A B C D E F G H I J K L M N O P Q R S T U V W X Y Z #


Menu

Search

Video

Bookmark

Login