Log in

One click and you are in

Login with Facebook Login with Google

Why sign up and log in

Guitar Tabs Explorer
House Of Heroes bass tabs for Buckets for bullet wounds

Buckets For Bullet Wounds bass tab - House Of Heroes

House Of Heroes bass tabs for Buckets for bullet wounds

Bass tabs

BUCKETS FOR BULLET WOUNDS-House of Heroes
-----------------------------------------------------------------------------

Tabbed by: mike_biro727
e-mail: gatorboy727@yahoo.com
Intro
G|--------------------------------------------------------------------------|
D|--------------------------------------------------------------------------|
A|-----1--------------------------------------------------------------------|
D|-1-3---3-55-5-5-5--1-11-1--0-00-0--1-11-1/55xx5-5--1-11-1--0-00-0--1-11-1-|

G|-0-0-2-3-2-0---0---|
D|-------------3-----|
A|-------------------|
D|-------------------|


Verse
G|--------------------------------------------------------------|
D|--------------------------------------------------------------|
A|-6-66-6--5-55-5--6-66-6/1010-10-10-10--6-66-6--5-55-5--6-66-6-|
D|--------------------------------------------------------------|


Prechorus
G|-0-0-2-3-2-0---0-0~----------------|
D|-------------3---------------------|
A|-----------------------------------|
D|------------------------5~5~5~5~---|


Chorus
G|--------------------------------|
D|--------------------------------| x2
A|-------------------------1-1-1-1|
D|-1-1-1-1-3-3-3-3-5-5-5-5--------|

G|-----------------------------------------------------0-0-2-3-2-0---|
D|-----------------------------------------------------------------3-|
A|-------------------------1-1-1-1-----------------------------------|
D|-1-1-1-1-3-3-3-3-5~-35~----------1-1-1-1-3~--5~--5~----------------|

Intro

G|----------------------------------------------------------------------|
D|----------------------------------------------------------------------|
A|----------------------------------------------------------------------|
D|-55-5-5-5--1-11-1--0-00-0--1-11-1/55xxxx5-5--1-11-1--0-00-0--1-11-1---|
G|-0-0-2-3-2-0---0------------------------------------------------------|
D|-------------3--------------------------------------------------------|
A|----------------------------------------------------------------------|
D|----------------------------------------------------------------------|


Verse 2
G|--------------------------------------------------------------|
D|--------------------------------------------------------------|
A|-6-66-6--5-55-5--6-66-6/1010-10-10-10--6-66-6--5-55-5--6-66-6-|
D|--------------------------------------------------------------|

G|-----------------------------------|
D|-----------------------------------|
A|-----------------------------------|
D||-55-5-5-5--1-11-1--0-00-0--1-11-1-|


Prechorus
G|-0-0-2-3-2-0---0-0~----------------|
D|-------------3---------------------|
A|-----------------------------------|
D|------------------------5~5~5~5~---|


Chorus 2
G|--------------------------------|
D|--------------------------------| x2
A|-------------------------1-1-1-1|
D|-1-1-1-1-3-3-3-3-5-5-5-5--------|

G|-------------------------------------------------|
D|-------------------------------------------------|
A|-------------------------1-1-1-1-----------------|
D|-1-1-1-1-3-3-3-3-5~-35~----------1-1-1-1-3~--5~--|


Bridge
G|---------------------------------|
D|---------------------------------|x3
A|-------------1-3-----6-5-1-3-5-1-|
D|-1-1-5-7-3-3-----5-5-------------|

G|-------------------|
D|-------------------|
A|-------------------|
D|1~--3~--5--5--5--5-|

Acoustic Part


Outro
G|--------------------------|
D|--------------------------|
A|-----1--------------1-----|
E|-1-3---1-5~\----1-3---3-5-|

G|--------------------------------------------------------------------|
D|--------------------------------------------------------------------|
A|--------------------------------------------------------------------|
D|-55-5-5-5--1-11-1--0-00-0--1-11-1-5-5-55-5-1-11-1--0-00-0--1-11-1---|

G|--------------------------------------------------------------------|
D|--------------------------------------------------------------------|
A|--------------------------------------------------------------------|
D|-5-5-5-5--1-11-1--0-00-0--1-11-1--5-5-55-5-1-11-1--0-00-0--1-11-1---|

G|-0-0-2-3-2-0---0-0--|
D|-------------3------|
A|--------------------|
D|--------------------|

There you go, don't hesitate to give corrections. Working on the rest of the album as

Almost there ...

Sign in to get your own page with links to favourite songs and more. You are just one click away...

Login with Facebook Login with Google