Log in

One click and you are in

Login with Facebook Login with Google

Why sign up and log in

Guitar Tabs Explorer
Hot Tuna tabs for Water song

Guitar tabs

with SMTP id <AA16296>; Mon, 15 Mar 1993 14:17:10 -0800
	id AA06929; Mon, 15 Mar 93 17:18:03 -0500
Cc: VEGEAISJ@rcwgwy.bp.com

Water Song by Hot Tuna from the "Burgers" album

not note-for-note, timings not shown, etc, etc; bars included for phrasing,
not timing

Tuning:  DGDGBD


1st part:
(repeated 4 times)
--------0--------0--------0--------0-----0-----0--
-----3--------3--------3--------3-----------------
-----------0-----------------0--------------0-----
--4-----------------4-----------------4-----------
--------------------------------------------------
--------------------------------------------------


--------0--------0--------0--------0-----0-----0--
-----1--------1--------1--------1-----------------
-----------0--------------------------------0-----
--2-----------------2--------0--------2-----------
--------------------------------------------------
--------------------------------------------------
On the last time a strummed chord is substituted for
the second line:

--0---
--1---
--0---
--2---
--0---
------

2nd part
(repeated 2 times)
-----9--------9-----9--7--7---|--------5--------5--5--|------0--0--0--0--|
--------8-----8-----8--7--7---|-----6-----6--6--5--5--|------3--3--3--1--|
-----------7--7-----7--7--7---|-----7-----7--7--5--5--|------0--0--0--0--|
--------------9-----9--7--7---|-----7-----7-----------|------4--4--4--2--|
--0--------------0------------|--0--------------------|---0--0--0--0--0--|
------------------------------|-----------------------|------------------|


3rd part
(repeated 4 times)
-----------------|-----------------------
-----------------|--------------0--3--1--
-----------------|-----------------------
-----------------|--------------0--4--2--
--------------0--|--0--2--3--4-----------
--2--3--4--5-----|-----------------------


4th part
--0--0--0--0--0--0--0--0--
--3--3--1--1--3--3--1--1--
--0--0--0--0--0--0--0--0--
--4--3--2--1--4--3--2--1--
--0--0--0--0--0--0--0--0--
--------------------------


5th part
(repeated 4 times)
-------------------5-----0-------------------------0--
-------(bend)---------------0-------(bend)---------0--
-----4--(5)--4--2-----0--------0--4--(5)--4--2--0--0--
--0-------------------0----------------------------0--
--0-------------------0----------------------------0--
------------------------------------------------------

Almost there ...

Sign in to get your own page with links to favourite songs and more. You are just one click away...

Login with Facebook Login with Google