Log in

One click and you are in

Login with Facebook Login with Google

Why sign up and log in

Guitar Tabs Explorer
Hot Tuna tabs for How long blues

Guitar tabs

From the acoustic guitar mailing list...

                        How Long Blues
                        Arr. Hot Tuna
Intro-intro (freely)

------------------|---------------------------|----}0-------------|
------7--9--7-----|-----------H--7---9-7------|----}0-----------0-|
--/9-----------9--|--9----9--7^9---9-----9-9--|----}0---------0---|
------------------|---------------------------|----}2-------2-----|
------------------|---------------------------|----}2----2--------|
------------------|---------------------------|--0-----0----------|
   |  |  |__|  |     ||   |  |_| |_| |_| |_|     |  |  |_|  |_|_|
                                                              3

intro   A chord diagramD MajorD                                 A chord diagramAm7Am7

-----|------------------------------|-----------------------------|
-----|--7-7-7--7-7-7--7-7-7--7-7-7--|--7-----------------5--------|
-----|--7-7-7--7-7-7--7-7-7--7-7-7--|--7-----5--5-----5--5--0-----|
-----|--7-7-7--7-7-7--7-7-7--7-7-7--|--7-----5--5--------5--------|
--0--|---------0------0------0------|--0--0-----------------------|
-----|------------------------------|--------------0--------------|
  b     |_|_|  |_|_|  |_|_|  |_|_|     |__|  |__|  |__|  |__|
          3      3      3      3

  A chord diagramG7G7                                  A chord diagramE7E7

--------1-----1-----1-----|-----1--------------0-----|
--3-----3--3--3--3--3--3--|-----3--3--------3--------|
-----0--------------------|-----------1-----------0--|
--------------------------|--------------------------|
--------------------------|--------------------------|
--3-----3-----3-----3-----|--3-----------0-----------|
  |__|  |__|  |__|  |__|     |__|  |__|  |__|  |__|


  A chord diagramD MajorD                           A chord diagramA augmentedA             G7/B     A chord diagramD MajorD
         P
-----2--2^0-------2---------|-----5------------1--0-----|
---------------3-------0----|------------------------3--|
------------2------------0--|---------------------------|
--------0------0-----0------|--------2------------3-----|
--0-------------------------|--0-------0-1--2-----------|
----------------------------|---------------------------|
  |__|  |_|_|  |__|  |_|_|     |__|  |_|_|  |__|  |__|
          3            3               3


              A chord diagramG7G7          A chord diagramD MajorD       A chord diagramA augmentedA

-----2-----------1-----|------------5-----------|
--------3-----3----{3--|--3-----1/2------{2-----|
--------2----------{0--|--2-----1/2------{2-/2--|
--0----------------{0--|--0--------------{2-----|
-----------0-----------|-----0---------0--------|
--------------3--------|------------------------|
  |__|  |__|  |__|  |     |__|  |_|_|  |  |__|



                                        - Michael


CHORUS:
How ..
It's ..

Thought ..
Deep ..
Said ..

SOLO

Well ..
Lost ..
How .
Well...CHORUS

SOLO, CHORUS

Almost there ...

Sign in to get your own page with links to favourite songs and more. You are just one click away...

Login with Facebook Login with Google