Search tabs and chords

Search for song, artist or band

Log in

One click and you are in

Login with Facebook Login with Google

Why sign up and log in

Guitar Tabs Explorer
Hot Mulligan guitar tabs for Wes dault cant find the madison falcon

Wes Dault Can't Find The Madison Falcon tab by Hot Mulligan

Hot Mulligan guitar tabs for Wes dault cant find the madison falcon

Guitar tabs

Intro

Guitar 1
E|-------------------------------------------------------------------|
C|--0-0-0-0-0-0-0-0-0-0-0-0-0-0-0-0-0-0-0-0-0-0-0-0-0-0-0-0-0-0-0-0--|
G|--0-0-0-0-0-0-0-0-0-0-0-0-0-0-0-0-0-0-0-0-0-0-0-0-0-0-0-0-0-0-0-0--|
C|--0-0-0-0-0-0-0-0-0-0-0-0-0-0-0-0-0-0-0-0-0-0-0-0-0-0-0-0-0-0-0-0--|
A|--3-3-3-3-3-3-3-3-3-3-3-3-3-3-3-3-x-x-x-x-x-x-x-x-3-3-3-3-3-3-3-3--|
F|--0-0-0-0-0-0-0-0-0-0-0-0-0-0-0-0-7-7-7-7-7-7-7-7-2-2-2-2-2-2-2-2--|

E|----------------------------------------------------------x-x-x-x--|
C|--0-0-0-0-0-0-0-0-0-0-0-0-0-0-0-0-0-0-0-0-0-0-0-0-0-0-0-0-x-x-x-x--|
G|--0-0-0-0-0-0-0-0-0-0-0-0-0-0-0-0-0-0-0-0-0-0-0-0-0-0-0-0-x-x-x-x--|
C|--0-0-0-0-0-0-0-0-0-0-0-0-0-0-0-0-0-0-0-0-0-0-0-0-0-0-0-0-x-x-x-x--|
A|--3-3-3-3-3-3-3-3-3-3-3-3-3-3-3-3-x-x-x-x-x-x-x-x-3-3-3-3-x-x-x-x--|
F|--0-0-0-0-0-0-0-0-0-0-0-0-0-0-0-0-7-7-7-7-7-7-7-7-2-2-2-2-x-x-x-x--|

E|-------------------------------------------------------------------|
C|--0-0-0-0-0-0-0-0-0-0-0-0-0-0-0-0-0-0-0-0-0-0-0-0-0-0-0-0-0-0-0-0--|
G|--0-0-0-0-0-0-0-0-0-0-0-0-0-0-0-0-0-0-0-0-0-0-0-0-0-0-0-0-0-0-0-0--|
C|--0-0-0-0-0-0-0-0-0-0-0-0-0-0-0-0-0-0-0-0-0-0-0-0-0-0-0-0-0-0-0-0--|
A|--3-3-3-3-3-3-3-3-3-3-3-3-3-3-3-3-x-x-x-x-x-x-x-x-3-3-3-3-3-3-3-3--|
F|--0-0-0-0-0-0-0-0-0-0-0-0-0-0-0-0-7-7-7-7-7-7-7-7-2-2-2-2-2-2-2-2--|

E|--x-x--------------------------------------------------------------|
C|--x-x-0-0-0-0-0-0-0-0-0-0-0-0-0-0-0-0-0-0-0-0-0-0-0-0-0-0-0-0-0-0--|
G|--x-x-0-0-0-0-0-0-0-0-0-0-0-0-0-0-0-0-0-0-0-0-0-0-0-0-0-0-0-0-0-0--|
C|--x-x-0-0-0-0-0-0-0-0-0-0-0-0-0-0-0-0-0-0-0-0-0-0-0-0-0-0-0-0-0-0--|
A|--x-x-3-3-3-3-3-3-3-3-3-3-3-3-3-3-x-x-x-x-x-x-x-x-3-3-3-3-3-3-3-3--|
F|--x-x-0-0-0-0-0-0-0-0-0-0-0-0-0-0-7-7-7-7-7-7-7-7-2-2-2-2-2-2-2-2--|

Guitar 2
E|-----------------------------------|-----------------------------------|-----------------------------------|
C|--0---0-0-0-0-0-0-0-0-0-0-0---0-0--|--0---0-0-0-0-0-0-0-0-0-0-0---0-0--|--0---0-0-0-0-0-0-0-0-0-0-0---0-0--|
G|--7h9-9-9-9-7-7-4-4-4-4-4-4/5-5-5--|--7h9-9-9-9-7-7-4-4-4-4-4-4/5-5-5--|--7h9-9-9-9-7-7-4-4-4-4-4-4/5-5-5--|
C|-----------------------------------|-----------------------------------|-----------------------------------|
A|-----------------------------------|-----------------------------------|-----------------------------------|
F|-----------------------------------|-----------------------------------|-----------------------------------|

E|-------------------------------|
C|--0-0-0-0-0-0-0-0-0-0-0-0-0----|
G|--7-7-7-5-5-5-4-4-4-4-4-4-4/5--|
C|-------------------------------|
A|-------------------------------|
F|-------------------------------|

E|-----------------------------------|-----------------------------------|-----------------------------------|
C|--0---0-0-0-0-0-0-0-0-0-0-0---0-0--|--0---0-0-0-0-0-0-0-0-0-0-0---0-0--|------0-0-0-0-0-0-0-0-0-0-0---0-0--|
G|--7h9-9-9-9-7-7-4-4-4-4-4-4/5-5-5--|--7h9-9-9-9-7-7-4-4-4-4-4-4/5-5-5--|------9-9-9-7-7-4-4-4-4-4-4/5-5-5--|
C|-----------------------------------|-----------------------------------|-----------------------------------|
A|-----------------------------------|-----------------------------------|-----------------------------------|
F|-----------------------------------|-----------------------------------|-----------------------------------|

E|--------------------------------------|
C|--0-0-0-0-0-0-0-0-0-0-0-0-0---0-0-0~--|
G|--7-7-7-5-5-5-4-4-4-4-4-4-4/5-5-5-5~--|
C|--------------------------------------|
A|--------------------------------------|
F|--------------------------------------|

Verse

Guitar 1
E|----------x-x--------------x-x-----|----------x-x--------------x-x-----|
C|--0-0-0-0-x-x-0~---0-0-0-0-x-x-0~--|--0-0-0-0-x-x-0~---0-0-0-0-x-x-0~--|
G|--0-0-0-0-x-x-0~---0-0-0-0-x-x-0~--|--0-0-0-0-x-x-0~---0-0-0-0-x-x-0~--|
C|--0-0-0-0-x-x-0~---0-0-0-0-x-x-0~--|--0-0-0-0-x-x-0~---0-0-0-0-x-x-0~--|
A|--3-3-3-3-x-x-3~---x-x-x-x-x-x-3~--|--3-3-3-3-x-x-3~---x-x-x-x-x-x-3~--|
F|--4-4-4-4-x-x-0~---7-7-7-7-x-x-2~--|--4-4-4-4-x-x-0~---7-7-7-7-x-x-2~--|

E|----------x-x------------------------------------|-----------------------------------------------x-x--|
C|--0-0-0-0-x-x-0~---0-0-0-0-0-0-0-0-0-0~---0-0-0--|--0-0-0-0-0-0-0~---0-0-0-0-0-0-0-0-0-0~--0-0-0-x-x--|
G|--0-0-0-0-x-x-0~---0-0-0-0-0-0-0-0-0-0~---0-0-0--|--0-0-0-0-0-0-0~---0-0-0-0-0-0-0-0-0-0~--0-0-0-x-x--|
C|--0-0-0-0-x-x-0~---0-0-0-0-0-0-0-0-0-0~---0-0-0--|--0-0-0-0-0-0-0~---0-0-0-0-0-0-0-0-0-0~--0-0-0-x-x--|
A|--3-3-3-3-x-x-3~---3-3-3-x-x-x-x-x-x-3~---3-3-3--|--3-3-3-3-3-3-3~---3-3-3-x-x-x-x-x-x-3~--3-3-3-x-x--|
F|--4-4-4-4-x-x-0~---0-0-0-7-7-7-7-7-7-2~---2-2-2--|--4-4-4-4-4-4-0~---0-0-0-7-7-7-7-7-7-2~--2-2-2-x-x--|
                             . .   . .                  . .   . .              . .   . .
Guitar 2
E|--------|--------|
C|--------|--------|
G|--REST--|--REST--|
C|--------|--------|
A|--------|--------|
F|--------|--------|

E|----------x-x------------------------------------|-----------------------------------------------x-x--|
C|----------x-x------------------------------------|-----------------------------------------------x-x--|
G|--9-9-9-9-x-x-5~---5-5-5-5-5-5-5-5-5-7~---7-7-7--|--9-9-9-9-9-9-5~---5-5-5-5-5-5-5-5-5-7~--7-7-7-x-x--|
C|--x-x-x-x-x-x-x----x-x-x-x-x-x-x-x-x-x----x-x-x--|--x-x-x-x-x-x-x----x-x-x-x-x-x-x-x-x-x---x-x-x-x-x--|
A|--7-7-7-7-x-x-3~---3-3-3-3-3-3-3-3-3-5~---5-5-5--|--7-7-7-7-7-7-3~---3-3-3-3-3-3-3-3-3-5~--5-5-5-x-x--|
F|----------x-x------------------------------------|-----------------------------------------------x-x--|
                             . .   . .                  . .   . .              . .   . .

Chorus

Guitar 1
E|-------------------------------------------------------------------|
C|--0-0-0-0-0-0-0-0-0-0-0-0-0-0-0-0-0-0-0-0-0-0-0-0-0-0-0-0-0-0-0-0--|
G|--0-0-0-0-0-0-0-0-0-0-0-0-0-0-0-0-0-0-0-0-0-0-0-0-0-0-0-0-0-0-0-0--|
C|--0-0-0-0-0-0-0-0-0-0-0-0-0-0-0-0-0-0-0-0-0-0-0-0-0-0-0-0-0-0-0-0--|
A|--3-3-3-3-3-3-3-3-3-3-3-3-3-3-3-3-x-x-x-x-x-x-x-x-3-3-3-3-3-3-3-3--|
F|--0-0-0-0-0-0-0-0-0-0-0-0-0-0-0-0-7-7-7-7-7-7-7-7-2-2-2-2-2-2-2-2--|

E|--x-x--------------------------------------------------------------|
C|--x-x-0-0-0-0-0-0-0-0-0-0-0-0-0-0-0-0-0-0-0-0-0-0-0-0-0-0-0-0-0-0--|
G|--x-x-0-0-0-0-0-0-0-0-0-0-0-0-0-0-0-0-0-0-0-0-0-0-0-0-0-0-0-0-0-0--|
C|--x-x-0-0-0-0-0-0-0-0-0-0-0-0-0-0-0-0-0-0-0-0-0-0-0-0-0-0-0-0-0-0--|
A|--x-x-3-3-3-3-3-3-3-3-3-3-3-3-3-3-x-x-x-x-x-x-x-x-3-3-3-3-3-3-3-3--|
F|--x-x-0-0-0-0-0-0-0-0-0-0-0-0-0-0-7-7-7-7-7-7-7-7-2-2-2-2-2-2-2-2--|

E|--------x-x-x-x----------------------------------x-x--------------------|
C|--0--0--x-x-x-x-0--------------4p2p0-------0---0-x-x-0---0-0-0-0-0-0-0--|
G|--0--0--x-x-x-x-0--------------------0h2p0-0---0-x-x-0---0-0-0-0-0-0-0--|
C|--0--0--x-x-x-x-0--------------------------0---0-x-x-0---0-0-0-0-0-0-0--|
A|--3--3--x-x-x-x-3--------------------------3---3-x-x-3---3-3-3-3-3-3-3--|
F|--0--0--x-x-x-x-0--------------------------4---4-x-x-2---2-2-2-2-2-2-2--|

E|--------x-x-x-x----------------------------------x-x--------------------|
C|--0--0--x-x-x-x-0--------------4p2p0-------0---0-x-x-0---0-0-0-0-0-0-0--|
G|--0--0--x-x-x-x-0--------------------0h2p0-0---0-x-x-0---0-0-0-0-0-0-0--|
C|--0--0--x-x-x-x-0--------------------------0---0-x-x-0---0-0-0-0-0-0-0--|
A|--3--3--x-x-x-x-3--------------------------3---3-x-x-3---3-3-3-3-3-3-3--|
F|--0--0--x-x-x-x-0--------------------------4---4-x-x-2---2-2-2-2-2-2-2--|

Guitar 2
E|-------------------------------------------------------------------|
C|--0-0-0-0-0-0-0-0-0-0-0-0-0-0-0-0-0-0-0-0-0-0-0-0-0-0-0-0-0-0-0-0--|
G|--5-5-5-5-5-5-5-5-5-5-5-5-5-5-5-5-7-7-7-7-7-7-7-7-4-4-4-4-4-4-4-4--|
C|-------------------------------------------------------------------|
A|-------------------------------------------------------------------|
F|-------------------------------------------------------------------|

E|--x-x--------------------------------------------------------------|
C|--x-x-0-0-0-0-0-0-0-0-0-0-0-0-0-0-0-0-0-0-0-0-0-0-0-0-0-0-0-0-0-0--|
G|--x-x-2-2-2-2-2-2-2-0-0-0-0-0-0-0-5-5-5-5-5-5-5-5-7-7-7-7-7-7-7-7--|
C|--x-x--------------------------------------------------------------|
A|--x-x--------------------------------------------------------------|
F|--x-x--------------------------------------------------------------|

E|--------x-x-x-x----------------------------------x-x--------------------|
C|--------x-x-x-x----4p2p0-------------------------x-x--------------------|
G|--5--5--x-x-x-x-5--------0h2p0-------------9---9-x-x-7---7-7-7-7-7-7-7--|
C|--x--x--x-x-x-x-x--------------------------x---x-x-x-x---x-x-x-x-x-x-x--|
A|--3--3--x-x-x-x-3--------------------------7---7-x-x-5---5-5-5-5-5-5-5--|
F|--------x-x-x-x----------------------------------x-x--------------------|

E|--------x-x-x-x----------------------------------x-x--------------------|
C|--------x-x-x-x----4p2p0-------------------------x-x--------------------|
G|--5--5--x-x-x-x-5--------0h2p0-------------9---9-x-x-7---7-7-7-7-7-7-7--|
C|--x--x--x-x-x-x-x--------------------------x---x-x-x-x---x-x-x-x-x-x-x--|
A|--3--3--x-x-x-x-3--------------------------7---7-x-x-5---5-5-5-5-5-5-5--|
F|--------x-x-x-x----------------------------------x-x--------------------|


Verse

Guitar 1
E|---------------------------|-----------------------------------|
C|------2---2p0-----2---2p0--|------2---2p0-----2---2p0-2/4\2p0--|
G|----0---0-------0---0------|----0---0-------0---0--------------|
C|---------------------------|-----------------------------------|
A|---------------------------|-----------------------------------|
F|--0-----------0------------|--4-----------2--------------------|

E|---------------------------|-----------------------------------|
C|------2---2p0-----2---2p0--|------2---2p0-----2---2p0-2/4\2p0--|
G|----0---0-------0---0------|----0---0-------0---0--------------|
C|---------------------------|-----------------------------------|
A|---------------------------|-----------------------------------|
F|--0-----------0------------|--4-----------2--------------------|

E|-----------------------------------|-----------------------------------|
C|------2---2p0-----2---2p0-2/4\2p0--|------2---2p0-----2---2p0-2p0------|
G|----0---0-------0---0--------------|----0---0-------0---0---------2p0--|
C|-----------------------------------|-----------------------------------|
A|-----------------------------------|-----------------------------------|
F|--0-----------0--------------------|--4-----------2--------------------|

E|-----------------------------------|-----------------------------------|
C|------2---2p0-----2---2p0-2/4\2p0--|------2---2p0-----2---2p0-2/4\2p0--|
G|----0---0-------0---0--------------|----0---0-------0---0--------------|
C|-----------------------------------|-----------------------------------|
A|-----------------------------------|-----------------------------------|
F|--0-----------0--------------------|--4-----------2--------------------|

Guitar 2
E|--------|--------|--------|--------|
C|--------|--------|--------|--------|
G|--REST--|--REST--|--REST--|--REST--|
C|--------|--------|--------|--------|
A|--------|--------|--------|--------|
F|--------|--------|--------|--------|

E|-----------------------------------|-----------------------------------|-----------------------------------|
C|--0---0-0-0-0-0-0-0-0-0-0-0---0-0--|--0---0-0-0-0-0-0-0-0-0-0-0---0-0--|--0---0-0-0-0-0-0-0-0-0-0-0---0-0--|
G|--7h9-9-9-9-7-7-4-4-4-4-4-4/5-5-5--|--7h9-9-9-9-7-7-4-4-4-4-4-4/5-5-5--|--7h9-9-9-9-7-7-4-4-4-4-4-4/5-5-5--|
C|-----------------------------------|-----------------------------------|-----------------------------------|
A|-----------------------------------|-----------------------------------|-----------------------------------|
F|-----------------------------------|-----------------------------------|-----------------------------------|

E|-----------------------------------|
C|--0-0-0-0-0-0-0-0-0-0-0-0-0-0-0-0--|
G|--7-7-7-7-7-7-9-9-9-9-9-9-9-9-9-9--|
C|-----------------------------------|
A|-----------------------------------|
F|-----------------------------------|


Pre Chorus

E|-------------------------------------------------------------------|
C|----------------------------------0-0-0-0-0-0-0-0-0-0-0-0-0-0-0-0--|
G|--9-9-9-9-9-9-9-9-9-9-9-9-9-9-9-9-0-0-0-0-0-0-0-0-0-0-0-0-0-0-0-0--|
C|--0-0-0-0-0-0-0-0-0-0-0-0-0-0-0-0-0-0-0-0-0-0-0-0-0-0-0-0-0-0-0-0--|
A|--x-x-x-x-x-x-x-x-x-x-x-x-x-x-x-x-3-3-3-3-3-3-3-3-3-3-3-3-3-3-3-3--|
F|--7-7-7-7-7-7-7-7-7-7-7-7-7-7-7-7-4-4-4-4-4-4-2-2-2-2-2-2-2-2-2-2--|

E|----------------------------------------------------------x-x--|
C|----------------------------------0-0-0-0-0-0-0-0-0-0-0-0-x-x--|
G|--9-9-9-9-9-9-9-9-9-9-9-9-9-9-9-9-0-0-0-0-0-0-0-0-0-0-0-0-x-x--|
C|--0-0-0-0-0-0-0-0-0-0-0-0-0-0-0-0-0-0-0-0-0-0-0-0-0-0-0-0-x-x--|
A|--x-x-x-x-x-x-x-x-x-x-x-x-x-x-x-x-3-3-3-3-3-3-3-3-3-3-3-3-x-x--|
F|--7-7-7-7-7-7-7-7-7-7-7-7-7-7-7-7-2-2-2-2-2-2-2-2-4-4-4-4-x-x--|


Chorus

Guitar 1
E|-------------------------------------------------------------------|
C|--0-0-0-0-0-0-0-0-0-0-0-0-0-0-0-0-0-0-0-0-0-0-0-0-0-0-0-0-0-0-0-0--|
G|--0-0-0-0-0-0-0-0-0-0-0-0-0-0-0-0-0-0-0-0-0-0-0-0-0-0-0-0-0-0-0-0--|
C|--0-0-0-0-0-0-0-0-0-0-0-0-0-0-0-0-0-0-0-0-0-0-0-0-0-0-0-0-0-0-0-0--|
A|--3-3-3-3-3-3-3-3-3-3-3-3-3-3-3-3-x-x-x-x-x-x-x-x-3-3-3-3-3-3-3-3--|
F|--0-0-0-0-0-0-0-0-0-0-0-0-0-0-0-0-7-7-7-7-7-7-7-7-2-2-2-2-2-2-2-2--|

E|--x-x--------------------------------------------------------------|
C|--x-x-0-0-0-0-0-0-0-0-0-0-0-0-0-0-0-0-0-0-0-0-0-0-0-0-0-0-0-0-0-0--|
G|--x-x-0-0-0-0-0-0-0-0-0-0-0-0-0-0-0-0-0-0-0-0-0-0-0-0-0-0-0-0-0-0--|
C|--x-x-0-0-0-0-0-0-0-0-0-0-0-0-0-0-0-0-0-0-0-0-0-0-0-0-0-0-0-0-0-0--|
A|--x-x-3-3-3-3-3-3-3-3-3-3-3-3-3-3-x-x-x-x-x-x-x-x-3-3-3-3-3-3-3-3--|
F|--x-x-0-0-0-0-0-0-0-0-0-0-0-0-0-0-7-7-7-7-7-7-7-7-2-2-2-2-2-2-2-2--|

E|--------x-x-x-x----------------------------------x-x--------------------|
C|--0--0--x-x-x-x-0--------------4p2p0-------0---0-x-x-0---0-0-0-0-0-0-0--|
G|--0--0--x-x-x-x-0--------------------0h2p0-0---0-x-x-0---0-0-0-0-0-0-0--|
C|--0--0--x-x-x-x-0--------------------------0---0-x-x-0---0-0-0-0-0-0-0--|
A|--3--3--x-x-x-x-3--------------------------3---3-x-x-3---3-3-3-3-3-3-3--|
F|--0--0--x-x-x-x-0--------------------------4---4-x-x-2---2-2-2-2-2-2-2--|

E|--------x-x-x-x----------------------------------x-x--------------------|
C|--0--0--x-x-x-x-0--------------4p2p0-------0---0-x-x-0---0-0-0-0-0-0-0--|
G|--0--0--x-x-x-x-0--------------------0h2p0-0---0-x-x-0---0-0-0-0-0-0-0--|
C|--0--0--x-x-x-x-0--------------------------0---0-x-x-0---0-0-0-0-0-0-0--|
A|--3--3--x-x-x-x-3--------------------------3---3-x-x-3---3-3-3-3-3-3-3--|
F|--0--0--x-x-x-x-0--------------------------4---4-x-x-2---2-2-2-2-2-2-2--|

Guitar 2
E|-------------------------------------------------------------------|
C|--0-0-0-0-0-0-0-0-0-0-0-0-0-0-0-0-0-0-0-0-0-0-0-0-0-0-0-0-0-0-0-0--|
G|--5-5-5-5-5-5-5-5-5-5-5-5-5-5-5-5-7-7-7-7-7-7-7-7-4-4-4-4-4-4-4-4--|
C|-------------------------------------------------------------------|
A|-------------------------------------------------------------------|
F|-------------------------------------------------------------------|

E|--x-x--------------------------------------------------------------|
C|--x-x-0-0-0-0-0-0-0-0-0-0-0-0-0-0-0-0-0-0-0-0-0-0-0-0-0-0-0-0-0-0--|
G|--x-x-2-2-2-2-2-2-2-0-0-0-0-0-0-0-5-5-5-5-5-5-5-5-7-7-7-7-7-7-7-7--|
C|--x-x--------------------------------------------------------------|
A|--x-x--------------------------------------------------------------|
F|--x-x--------------------------------------------------------------|

E|--------x-x-x-x----------------------------------x-x--------------------|
C|--------x-x-x-x----4p2p0-------------------------x-x--------------------|
G|--5--5--x-x-x-x-5--------0h2p0-------------9---9-x-x-7---7-7-7-7-7-7-7--|
C|--x--x--x-x-x-x-x--------------------------x---x-x-x-x---x-x-x-x-x-x-x--|
A|--3--3--x-x-x-x-3--------------------------7---7-x-x-5---5-5-5-5-5-5-5--|
F|--------x-x-x-x----------------------------------x-x--------------------|

E|--------x-x-x-x----------------------------------x-x--------------------|
C|--------x-x-x-x----4p2p0-------------------------x-x--------------------|
G|--5--5--x-x-x-x-5--------0h2p0-------------9---9-x-x-7---7-7-7-7-7-7-7--|
C|--x--x--x-x-x-x-x--------------------------x---x-x-x-x---x-x-x-x-x-x-x--|
A|--3--3--x-x-x-x-3--------------------------7---7-x-x-5---5-5-5-5-5-5-5--|
F|--------x-x-x-x----------------------------------x-x--------------------|


Bridge

Guitar 1
E|------------------------------------------------------------5+--|
C|--0-0-0-0-0-0-0-0-0-0-0-0-0-0-0-0-0-0-0-0-0-0-0-0-0-0-0-0---5+--|
G|--0-0-0-0-0-0-0-0-0-0-0-0-0-0-0-0-0-0-0-0-0-0-0-0-0-0-0-0---5+--|
C|--0-0-0-0-0-0-0-0-0-0-0-0-0-0-0-0-0-0-0-0-0-0-0-0-0-0-0-0-------|
A|--3-3-3-3-3-3-3-3-3-3-3-3-3-3-3-3-x-x-x-x-x-x-x-x-3-3-3-3-------|
F|--4-4-4-4-4-4-4-4-4-4-4-4-4-4-4-4-7-7-7-7-7-7-7-7-2-2-2-2-------|

E|----------------------------------------------------------x-x-x-x--|
C|--0-0-0-0-0-0-0-0-0-0-0-0-0-0-0-0-0-0-0-0-0-0-0-0-0-0-0-0-x-x-x-x--|
G|--0-0-0-0-0-0-0-0-0-0-0-0-0-0-0-0-0-0-0-0-0-0-0-0-0-0-0-0-x-x-x-x--|
C|--0-0-0-0-0-0-0-0-0-0-0-0-0-0-0-0-0-0-0-0-0-0-0-0-0-0-0-0-x-x-x-x--|
A|--3-3-3-3-3-3-3-3-3-3-3-3-3-3-3-3-x-x-x-x-x-x-x-x-x-x-x-x-x-x-x-x--|
F|--4-4-4-4-4-4-4-4-4-4-4-4-4-4-4-4-7-7-7-7-7-7-7-7-9-9-9-9-x-x-x-x--|

Guitar 2
E|------|
C|------|
G|--5~--|
C|--x---|
A|--3~--|
F|------|

E|-------------------------------------------------------------------|
C|-------------------------------------------------------------------|
G|--5-5-5-5-5-5-5-5-5-5-5-5-5-5-5-5-7-7-7-7-7-7-7-7-4-4-4-4-4-4-4-4--|
C|--x-x-x-x-x-x-x-x-x-x-x-x-x-x-x-x-x-x-x-x-x-x-x-x-x-x-x-x-x-x-x-x--|
A|--3-3-3-3-3-3-3-3-3-3-3-3-3-3-3-3-5-5-5-5-5-5-5-5-2-2-2-2-2-2-2-2--|
F|-------------------------------------------------------------------|


Chorus

Guitar 1
E|-------------------------------------------------------------------|
C|--0-0-0-0-0-0-0-0-0-0-0-0-0-0-0-0-0-0-0-0-0-0-0-0-0-0-0-0-0-0-0-0--|
G|--0-0-0-0-0-0-0-0-0-0-0-0-0-0-0-0-0-0-0-0-0-0-0-0-0-0-0-0-0-0-0-0--|
C|--0-0-0-0-0-0-0-0-0-0-0-0-0-0-0-0-0-0-0-0-0-0-0-0-0-0-0-0-0-0-0-0--|
A|--3-3-3-3-3-3-3-3-3-3-3-3-3-3-3-3-x-x-x-x-x-x-x-x-3-3-3-3-3-3-3-3--|
F|--0-0-0-0-0-0-0-0-0-0-0-0-0-0-0-0-7-7-7-7-7-7-7-7-2-2-2-2-2-2-2-2--|

E|--x-x--------------------------------------------------------------|
C|--x-x-0-0-0-0-0-0-0-0-0-0-0-0-0-0-0-0-0-0-0-0-0-0-0-0-0-0-0-0-0-0--|
G|--x-x-0-0-0-0-0-0-0-0-0-0-0-0-0-0-0-0-0-0-0-0-0-0-0-0-0-0-0-0-0-0--|
C|--x-x-0-0-0-0-0-0-0-0-0-0-0-0-0-0-0-0-0-0-0-0-0-0-0-0-0-0-0-0-0-0--|
A|--x-x-3-3-3-3-3-3-3-3-3-3-3-3-3-3-x-x-x-x-x-x-x-x-3-3-3-3-3-3-3-3--|
F|--x-x-0-0-0-0-0-0-0-0-0-0-0-0-0-0-7-7-7-7-7-7-7-7-2-2-2-2-2-2-2-2--|

E|-------------------------------------------------------------------|
C|--0-0-0-0-0-0-0-0-0-0-0-0-0-0-0-0-0-0-0-0-0-0-0-0-0-0-0-0-0-0-0-0--|
G|--0-0-0-0-0-0-0-0-0-0-0-0-0-0-0-0-0-0-0-0-0-0-0-0-0-0-0-0-0-0-0-0--|
C|--0-0-0-0-0-0-0-0-0-0-0-0-0-0-0-0-0-0-0-0-0-0-0-0-0-0-0-0-0-0-0-0--|
A|--3-3-3-3-3-3-3-3-3-3-3-3-3-3-3-3-x-x-x-x-x-x-x-x-3-3-3-3-3-3-3-3--|
F|--0-0-0-0-0-0-0-0-0-0-0-0-0-0-0-0-7-7-7-7-7-7-7-7-2-2-2-2-2-2-2-2--|

E|-------------------------------------------------------------------|
C|--0-0-0-0-0-0-0-0-0-0-0-0-0-0-0-0-0-0-0-0-0-0-0-0-0-0-0-0-0-0-0-0--|
G|--0-0-0-0-0-0-0-0-0-0-0-0-0-0-0-0-0-0-0-0-0-0-0-0-0-0-0-0-0-0-0-0--|
C|--0-0-0-0-0-0-0-0-0-0-0-0-0-0-0-0-0-0-0-0-0-0-0-0-0-0-0-0-0-0-0-0--|
A|--3-3-3-3-3-3-3-3-3-3-3-3-3-3-3-3-x-x-x-x-x-x-x-x-3-3-3-3-3-3-3-3--|
F|--0-0-0-0-0-0-0-0-0-0-0-0-0-0-0-0-7-7-7-7-7-7-7-7-2-2-2-2-2-2-2-2--|

Guitar 2
E|-------------------------------------------------------------------|
C|--0-0-0-0-0-0-0-0-0-0-0-0-0-0-0-0-0-0-0-0-0-0-0-0-0-0-0-0-0-0-0-0--|
G|--5-5-5-5-5-5-5-5-5-5-5-5-5-5-5-5-7-7-7-7-7-7-7-7-4-4-4-4-4-4-4-4--|
C|-------------------------------------------------------------------|
A|-------------------------------------------------------------------|
F|-------------------------------------------------------------------|

E|--x-x--------------------------------------------------------------|
C|--x-x-0-0-0-0-0-0-0-0-0-0-0-0-0-0-0-0-0-0-0-0-0-0-0-0-0-0-0-0-0-0--|
G|--x-x-2-2-2-2-2-2-2-0-0-0-0-0-0-0-5-5-5-5-5-5-5-5-7-7-7-7-7-7-7-7--|
C|--x-x--------------------------------------------------------------|
A|--x-x--------------------------------------------------------------|
F|--x-x--------------------------------------------------------------|

E|-----------------------------------|-----------------------------------|-----------------------------------|
C|--0---0-0-0-0-0-0-0-0-0-0-0---0-0--|--0---0-0-0-0-0-0-0-0-0-0-0---0-0--|--0---0-0-0-0-0-0-0-0-0-0-0---0-0--|
G|--7h9-9-9-9-7-7-4-4-4-4-4-4/5-5-5--|--7h9-9-9-9-7-7-4-4-4-4-4-4/5-5-5--|--7h9-9-9-9-7-7-4-4-4-4-4-4/5-5-5--|
C|-----------------------------------|-----------------------------------|-----------------------------------|
A|-----------------------------------|-----------------------------------|-----------------------------------|
F|-----------------------------------|-----------------------------------|-----------------------------------|

E|-----------------------------------|
C|--0-0-0-0-0-0-0-0-0-0-0-0-0---0-0--|
G|--7-7-7-5-5-5-4-4-4-4-4-4-4/5-5-5--|
C|-----------------------------------|
A|-----------------------------------|
F|-----------------------------------|


Outro

Guitar 1
E|--------x-x-x-x-----|
C|--0--0--x-x-x-x-0~--|
G|--0--0--x-x-x-x-0~--|
C|--0--0--x-x-x-x-0~--|
A|--3--3--x-x-x-x-3~--|
F|--0--0--x-x-x-x-0~--|

Guitar 2
E|--------x-x-x-x-----|
C|--------x-x-x-x-----|
G|--5--5--x-x-x-x-5~--|
C|--x--x--x-x-x-x-x---|
A|--3--3--x-x-x-x-3~--|
F|--------x-x-x-x-----|



**************************************

|  x    mute note
|  h    hammer on
|  /    slide up
|  ~    sustained note
|  .    palm mute
|  p    pull off
|  \    slide down

**************************************

Almost there ...

Sign in to get your own page with links to favourite songs and more. You are just one click away...

Login with Facebook Login with Google