Search tabs and chords

Search for song, artist or band

Log in

One click and you are in

Login with Facebook Login with Google

Why sign up and log in

Guitar Tabs Explorer
Hot Mulligan guitar tabs for There was a semi fight on i-69

There Was A Semi Fight On I-69 tab by Hot Mulligan

Hot Mulligan guitar tabs for There was a semi fight on i-69

Guitar tabs

  • Capo on 5th
Tuning: Standard (E A D G B E)

Difficulty: Intermediate


Tuning: A chord diagramFF A chord diagramA majorA A chord diagramC majorC A chord diagramG MajorG A chord diagramC majorC A chord diagramE MajorE

CAPO: 5th fret   (Tab is in reference to the capo.. 0 = fret 5)

Cover for reference:

Tabbed by Matthew Langston

Intro:

E|----------------------------------------------------------|
C|---2--4---2h4p2p0-------0--------------0-----------0------|
G|---0--0-----------0h2p0----0-----0h2p0-------0h2p0-----0--|
C|---0--0---------------------------------------------------|
A|----------------------------------------------------------|
F|------------------------------0-----------0---------------|

E|----------------------------------------------------------|
C|---2--4---2h4p2p0-------0--------------0-----------0------|
G|---0--0-----------0h2p0----0-----0h2p0-------0h2p0-----0--|
C|---0--0---------------------------------------------------|
A|----------------------------------------------------------|
F|------------------------------0-----------0---------------|

E|----------------------------------------------------------|
C|---2--4---2h4p2p0-------0--------------0-----------0------|
G|---0--0-----------0h2p0----0-----0h2p0-------0h2p0-----0--|
C|---0--0---------------------------------------------------|
A|----------------------------------------------------------|
F|------------------------------0-----------0---------------|

E|-----------------------0------------------|
C|-----------------0--------0--------2---0--|
G|-----------0h2p0-------------0------------|
C|-----0h2p0--------------------------------|
A|--0---------------------------------------|
F|--------------------2-----------0---------|

Verse:

Guitar 1
E|----------------------------------------------------------|
C|---2--4---2h4p2p0-------0--------------0-----------0------|
G|---0--0-----------0h2p0----0-----0h2p0-------0h2p0-----0--|
C|---0--0---------------------------------------------------|
A|----------------------------------------------------------|
F|------------------------------0-----------0---------------|

E|----------------------------------------------------------|
C|---2--4---2h4p2p0-------0--------------0-----------0------|
G|---0--0-----------0h2p0----0-----0h2p0-------0h2p0-----0--|
C|---0--0---------------------------------------------------|
A|----------------------------------------------------------|
F|------------------------------0-----------0---------------|

E|----------------------------------------------------------|
C|---2--4---2h4p2p0-------0--------------0-----------0------|
G|---0--0-----------0h2p0----0-----0h2p0-------0h2p0-----0--|
C|---0--0---------------------------------------------------|
A|----------------------------------------------------------|
F|------------------------------0-----------0---------------|

E|-----------------------0----------------------------|
C|-----------------0--------0--------2---0------0-----|
G|-----------0h2p0-------------0-------------0-----0--|
C|-----0h2p0------------------------------------------|
A|--0-------------------------------------------------|
F|--------------------2-----------0-------------------|

Guitar 2
E|--------------------|--------------------|--------------------|----------------|
C|--------------------|--------------------|--------------------|----------------|
G|--7/9---7/9--9--5~--|--7/9---7/9--9--5~--|--7/9---7/9--9--5~--|--7~---9~---5~--|
C|--x-x---x-x--x--x---|--x-x---x-x--x--x---|--x-x---x-x--x--x---|--x----x----x---|
A|--5/7---5/7--7--3~--|--5/7---5/7--7--3~--|--5/7---5/7--7--3~--|--5~---7~---3~--|
F|--------------------|--------------------|--------------------|----------------|


Interlude:

Guitar 1
E|-----------------------------------------------------------------------------|
C|--------------0--------------0--------------0--------------0--------------0--|
G|--------0h2p0----------0h2p0----------0h2p0----------0h2p0----------0h2p0----|
C|--0h2h4----------0h2h4----------0h2h4----------0h2h4----------0h2h4----------|
A|-----------------------------------------------------------------------------|
F|-----------------------------------------------------------------------------|

E|-----------------------------------------------------------------------------|
C|--------------0--------------0--------------0--------------0--------------0--|
G|--------0h2p0----------0h2p0----------0h2p0----------0h2p0----------0h2p0----|
C|--0h2h4----------0h2h4----------0h2h4----------0h2h4----------0h2h4----------|
A|-----------------------------------------------------------------------------|
F|-----------------------------------------------------------------------------|

E|-----------------------------------------------------------------------------|
C|--------------0--------------0--------------0--------------0--------------0--|
G|--------0h2p0----------0h2p0----------0h2p0----------0h2p0----------0h2p0----|
C|--0h2h4----------0h2h4----------0h2h4----------0h2h4----------0h2h4----------|
A|-----------------------------------------------------------------------------|
F|-----------------------------------------------------------------------------|

E|-------------------------------------------------------------------------|
C|--------------0--------------0--------------0--------------0----0--0--0--|
G|--------0h2p0----------0h2p0----------0h2p0----------0h2p0------0--0--0--|
C|--0h2h4----------0h2h4----------0h2h4----------0h2h4------------0--0--0--|
A|----------------------------------------------------------------3--3--3--|
F|----------------------------------------------------------------0--0--0--|

Guitar 2
E|----------------|--------------------|---------------------|---------------------|
C|----------------|--------------------|---------------------|---------------------|
G|--5~-----9-9-9--|--9~-/5~-----9-9-9--|--9~--/5~-----9-9-9--|--9~--/5~-----7-7-7--|
C|--x------x-x-x--|--x---x------x-x-x--|--x----x------x-x-x--|--x----x------x-x-x--|
A|--3~-----7-7-7--|--7~-/3~-----7-7-7--|--7~--/3~-----7-7-7--|--7~--/3~-----5-5-5--|
F|----------------|--------------------|---------------------|---------------------|


Verse:

Guitar 1
E|-------------------------------------|
C|--0~-------0~-------0~--------0-0-0--|
G|--0~-------0~-------0~--------0-0-0--|
C|--0~-------0~-------0~--------0-0-0--|
A|--3~-------3~-------3~--------3-3-3--|
F|--0~-------4~-------2~--------2-2-2--|

E|-------------------------------------|
C|--0~-------0~-------0~--------0-0-0--|
G|--0~-------0~-------0~--------0-0-0--|
C|--0~-------0~-------0~--------0-0-0--|
A|--3~-------3~-------3~--------3-3-3--|
F|--0~-------4~-------2~--------2-2-2--|

E|-------------------------------------|
C|--0~-------0~-------0~--------0-0-0--|
G|--0~-------0~-------0~--------0-0-0--|
C|--0~-------0~-------0~--------0-0-0--|
A|--3~-------3~-------3~--------3-3-3--|
F|--0~-------4~-------2~--------2-2-2--|

E|-----------------------------------------------------|
C|--0~-------0~-------------------0-0-0-0-0-0-0-0-0-0--|
G|--0~-------0~-------------------0-0-0-0-0-0-0-0-0-0--|
C|--0~-------0~-------------------0-0-0-0-0-0-0-0-0-0--|
A|--3~-------3~-------3-3-3-3-3-3-3-3-3-3-3-3-3-3-3-3--|
F|--0~-------4~-------2-2-2-2-2-2-2-2-2-2-2-2-2-2-2-2--|
                      . . . . . .

Guitar 2
E|-----------------------------------|-----------------------------------|
C|----0---0---0---0---0---0---0---0--|----0---0---0---0---0---0---0---0--|
G|--5---5---5---5---5---5---5---5----|--5---5---5---5---5---5---4---4----|
C|-----------------------------------|-----------------------------------|
A|-----------------------------------|-----------------------------------|
F|-----------------------------------|-----------------------------------|

E|-----------------------------------|-----------------------------------|
C|----0---0---0-------0---0---0---0--|----0---0---0---0---0---0---0---0--|
G|--5---5---5---5/7-7---5---5---5----|--5---5---5---5---5---5---4---4----|
C|-----------------------------------|-----------------------------------|
A|-----------------------------------|-----------------------------------|
F|-----------------------------------|-----------------------------------|

E|-----------------------------------|-----------------------------------|
C|----0---0---0-------0---0---0---0--|--------0---0---0---0---0---0---0--|
G|--5---5---5---5/7-7---7---7---7----|--4/5-5---5---5---5---5---4---4----|
C|-----------------------------------|-----------------------------------|
A|-----------------------------------|-----------------------------------|
F|-----------------------------------|-----------------------------------|

E|-----------------------------------|-----------------------------------|
C|----0---0---0-------0---0---0---0--|--------0---0---0---0---0---0---0--|
G|--5---5---5---5/7-7---7---7---7----|--4/5-5---5---5---9---9---9---9----|
C|-----------------------------------|-----------------------------------|
A|-----------------------------------|-----------------------------------|
F|-----------------------------------|-----------------------------------|


Chorus:

Guitar 1
E|----------------------------------------------------------|
C|---2--4---2h4p2p0-------0--------------0-----------0------|
G|---0--0-----------0h2p0----0-----0h2p0-------0h2p0-----0--|
C|---0--0---------------------------------------------------|
A|----------------------------------------------------------|
F|------------------------------0-----------0---------------|

E|----------------------------------------------------------|
C|---2--4---2h4p2p0-------0--------------0-----------0------|
G|---0--0-----------0h2p0----0-----0h2p0-------0h2p0-----0--|
C|---0--0---------------------------------------------------|
A|----------------------------------------------------------|
F|------------------------------0-----------0---------------|

E|----------------------------------------------------------|
C|---2--4---2h4p2p0-------0--------------0-----------0------|
G|---0--0-----------0h2p0----0-----0h2p0-------0h2p0-----0--|
C|---0--0---------------------------------------------------|
A|----------------------------------------------------------|
F|------------------------------0-----------0---------------|

E|---------------------------------------------------------------|
C|---2--4---2h4p2p0-------0--------------0-----------0---0-0-0~--|
G|---0--0-----------0h2p0----0-----0h2p0-------0h2p0-----0-0-0~--|
C|---0--0------------------------------------------------0-0-0~--|
A|-------------------------------------------------------3-3-3~--|
F|------------------------------0-----------0------------0-0-0~--|

Guitar 2
E|--------|--------|--------------------|---------------------------------|
C|--------|--------|--------------------|---------------------------------|
G|--REST--|--REST--|--7/9---7/9--9--5~--|--7/9---7/9--9--5~-----5-5-5-5~--|
C|--------|--------|--x-x---x-x--x--x---|--x-x---x-x--x--x------x-x-x-x---|
A|--------|--------|--5/7---5/7--7--3~--|--5/7---5/7--7--3~-----3-3-3-3~--|
F|--------|--------|--------------------|---------------------------------|


Outro:

Guitar 1
E|-----------------------------------------------------|
C|-----------------------------------------------------|
G|-----------------------------------------------------|
C|----0h2p0---4p0---0h2p0---4p0---0h2p0---4p0----4--0--|
A|-----------------------------------------------------|
F|--0-------0-----0-------0-----0-------0-----0--------|

E|-------------------------------------|
C|-------------------------------------|
G|-------------------------------------|
C|----4--0----0--4----0--4----0--2--0--|
A|-------------------------------------|
F|--2-------2-------2-------2----------|

E|-----------------------------------------------------|
C|-----------------------------------------------------|
G|-----------------------------------------------------|
C|----0h2p0---4p0---0h2p0---4p0---0h2p0---4p0----4--0--|
A|-----------------------------------------------------|
F|--0-------0-----0-------0-----0-------0-----0--------|

E|----------------------------------------|
C|----------------------------------------|
G|----------------------------------------|
C|----4--0----0--4----0--4----0--2--4--0--|
A|----------------------------------------|
F|--2-------2-------2-------2-------------|

E|-----------------------------------------------------|
C|-----------------------------------------------------|
G|-----------------------------------------------------|
C|----0h2p0---4p0---0h2p0---4p0---0h2p0---4p0----4--0--|
A|-----------------------------------------------------|
F|--0-------0-----0-------0-----0-------0-----0--------|

E|-------------------------------------|
C|-------------------------------------|
G|-------------------------------------|
C|----4--0----0--4----0--4----0--2--0--|
A|-------------------------------------|
F|--2-------2-------2-------2----------|

E|-----------------------------------------------------|
C|-----------------------------------------------------|
G|-----------------------------------------------------|
C|----0h2p0---4p0---0h2p0---4p0---0h2p0---4p0----4--0--|
A|-----------------------------------------------------|
F|--0-------0-----0-------0-----0-------0-----0--------|

E|----------------------------------------|
C|----------------------------------------|
G|----------------------------------------|
C|----4--0----0--4----0--4----0--2--4--0--|
A|----------------------------------------|
F|--2-------2-------2-------2-------------|

Guitar 2
E|-----------------------------------------------------|
C|------------0-------------0-------------0------0-----|
G|----0h2p0---------0h2p0---------0h2p0-------------0--|
C|--0-------0-----0-------0-----0-------0-----0--------|
A|-----------------------------------------------------|
F|-----------------------------------------------------|

E|--0------0------------|
C|------2------2-p0-----|
G|-------------------0--|
C|----------------------|
A|----------------------|
F|----------------------|

E|-----------------------------------------------------|
C|------------0-------------0-------------0------0-----|
G|----0h2p0---------0h2p0---------0h2p0-------------0--|
C|--0-------0-----0-------0-----0-------0-----0--------|
A|-----------------------------------------------------|
F|-----------------------------------------------------|

E|--0------0---------------|
C|------2------0--2-p0-----|
G|----------------------0--|
C|-------------------------|
A|-------------------------|
F|-------------------------|

E|-----------------------------------------------------|
C|------------0-------------0-------------0------0-----|
G|----0h2p0---------0h2p0---------0h2p0-------------0--|
C|--0-------0-----0-------0-----0-------0-----0--------|
A|-----------------------------------------------------|
F|-----------------------------------------------------|

E|--0------0------------|
C|------2------2-p0-----|
G|-------------------0--|
C|----------------------|
A|----------------------|
F|----------------------|

E|-----------------------------------------------------|
C|------------0-------------0-------------0------0-----|
G|----0h2p0---------0h2p0---------0h2p0-------------0--|
C|--0-------0-----0-------0-----0-------0-----0--------|
A|-----------------------------------------------------|
F|-----------------------------------------------------|

E|--0------0---------------|
C|------2------0--2-p0-----|
G|----------------------0--|
C|-------------------------|
A|-------------------------|
F|-------------------------|



**************************************

|  h    hammer on
|  p    pull off
|  x    mute note
|  /    slide up
|  ~    sustained note
|  .    palm mute

**************************************

Almost there ...

Sign in to get your own page with links to favourite songs and more. You are just one click away...

Login with Facebook Login with Google