Search tabs and chords

Search for song, artist or band

Log in

One click and you are in

Login with Facebook Login with Google

Why sign up and log in

Guitar Tabs Explorer
Hot Mulligan guitar tabs for The soundtrack to missing a slam dunk

The Soundtrack To Missing A Slam Dunk tab by Hot Mulligan

Hot Mulligan guitar tabs for The soundtrack to missing a slam dunk

Guitar tabs

Intro/Chorus

e|--8----8----8---8---8------------------------------------------------------|
B|--7----7----7---7---7------------------------------------------------------|
G|--5----5----x---5---x---------X2-------------------------------------------|
D|--0----0----x---0---x------------------------------------------------------|
A|--7----x----5-------5------------------------------------------------------|
E|-------7-------------------------------------------------------------------|
Instrumental
guitar 1
e|---------------------------------------------------------------------------|
B|-----4-4-4-4h7p4p0--0-0--2-2--0-0--2-2--0-0--------------------------------|
G|---------------------------------------------------------------------------|
D|---------------------------------------------------------------------------|
A|---------------------------------------------------------------------------|
E|---------------------------------------------------------------------------|

guitar 2
e|--8----8----8---8---8------------------------------------------------------|
B|--7----7----7---7---7------------------------------------------------------|
G|--5----5----x---5---x---------X2-------------------------------------------|
D|--0----0----x---0---x------------------------------------------------------|
A|--7----x----5-------5------------------------------------------------------|
E|-------7-------------------------------------------------------------------|


Verse
pick through chords add in palm muting where needed
e|---8-----8----8------------------------------------------------------------|
B|---7-----7----7------------------------------------------------------------|
G|---0-----0----5------------------------------------------------------------|
D|---x-----x----0------------X4----------------------------------------------|
A|---7-----5-----------------------------------------------------------------|
E|---------------------------------------------------------------------------|

e|--8----8----8---8---8------------------------------------------------------|
B|--7----7----7---7---7------------------------------------------------------|
G|--5----5----x---5---x---------X4-------------------------------------------|
D|--0----0----x---0---x------------------------------------------------------|
E|--7----x----5-------5------------------------------------------------------|
E|-------7-------------------------------------------------------------------|

Verse
pick through chords add in palm muting where needed
e|---8-----8----8------------------------------------------------------------|
B|---7-----7----7------------------------------------------------------------|
G|---0-----0----5------------------------------------------------------------|
D|---x-----x----0------------X4----------------------------------------------|
A|---7-----5-----------------------------------------------------------------|
E|---------------------------------------------------------------------------|


Pre-Chorus
pick through first two chords end on last chord
e|---8-----8----8----------x-x-----------------------------------------------|
B|---7-----7----7----------x-x-----------------------------------------------|
G|---0-----5----0----------x-x-----------------------------------------------|
D|---0-----0----x----------x-x-----------------------------------------------|
A|---5-----0----x----------x-x-----------------------------------------------|
E|--------------7----------x-x-----------------------------------------------|

e|--8----8----8---8---8------------------------------------------------------|
B|--7----7----7---7---7------------------------------------------------------|
G|--5----5----x---5---x---------X4-------------------------------------------|
D|--0----0----x---0---x------------------------------------------------------|
E|--7----x----5-------5------------------------------------------------------|
E|-------7-------------------------------------------------------------------|


Breakdown

e|--0------0-------0---------------------------------------------------------|
B|--0------0-------0--------2p0----------------------------------------------|
G|--0------0-------0----------2p0--------------------------------------------|
D|--0-X16--0--x8---0--x8------------x2---------------------------------------|
E|--3------3-------3---------------------------------------------------------|
E|--0------4-------2---------------------------------------------------------|

e|--0----------0---------------0-------------0-------------------------------|
B|--0---2p0----0------2p0------0---2p0-------0-----2p0-----------------------|
G|--0----2p0---0--------2p0----0-----2p0-----0-------2p0---------------------|
D|--0-x4-------0---x4----------0--x4---------0--x4---------x2----------------|
E|--3----------3---------------3-------------3-------------------------------|
E|--0----------0---------------4-------------2-------------------------------|


e|--8----8----8---8---8-------------------------8----------------------------|
B|--7----7----7---7---7-------------------------7----------------------------|
G|--5----5----x---5---x---------X4--------------0----------------------------|
D|--0----0----x---0---x---------------end on----0----------------------------|
E|--7----x----5-------5-------------------------x----------------------------|
E|-------7--------------------------------------7----------------------------|


************************************

| x   Dead note
| h   Hammer-on
| p   Pull-off

************************************
data-matched-content-ui-type="image_card_stacked"

Almost there ...

Sign in to get your own page with links to favourite songs and more. You are just one click away...

Login with Facebook Login with Google