Search tabs and chords

Search for song, artist or band

Log in

One click and you are in

Login with Facebook Login with Google

Why sign up and log in

Guitar Tabs Explorer
Hot Mulligan guitar tabs for Shaylee shanel

Guitar tabs

Guitar One Tuning: FACGCE
Guitar Two Tuning: FACGCE
For strumming patterns, watch this video: https://youtu.be/S65jfi3TAuU

Intro:
(Guitar One)
E|--0-0-|-0-0-|-0-0-|-0-0-|
C|--0-0-|-0-0-|-2-4-|-0-0-|
G|--7-9-|-7-9-|-0-0-|-7-7-|
C|--0-0-|-0-0-|-4-4-|-7-7-|
A|--x-x-|-x-x-|-x-x-|-5-5-|
F|--7-7-|-6-6-|-3-3-|-6-6-|

Verse:
(Guitar One)
E|--0-0-|-0-0-|-0-0-|-0-0-|
C|--0-0-|-0-0-|-2-4-|-0-0-|
G|--7-9-|-7-9-|-0-0-|-7-7-|
C|--0-0-|-0-0-|-4-4-|-7-7-|
A|--x-x-|-x-x-|-x-x-|-5-5-|
F|--7-7-|-6-6-|-3-3-|-6-6-|

(Guitar Two)
E|--3p0-3p0-----|
C|----------2p0-|
G|--------------| (x3)
C|--------------|
A|--------------|
F|--------------|

E|--3--1--0--|
C|-----------|
G|-----------|
C|-----------|
A|-----------|
F|-----------|

Chorus: (x2)
(Guitar One)
E|--0-0-|-0-0-|-0-0-|-0-0-|-0-0-|-0-0-|-0-0-|-0-0-|
C|--0-0-|-0-0-|-0-0-|-0-0-|-0-0-|-0-0-|-0-0-|-0-0-|
G|--5-5-|-5-5-|-5-5-|-5-5-|-7-7-|-7-7-|-7-7-|-7-7-|
C|--5-5-|-5-5-|-5-5-|-5-5-|-0-0-|-0-0-|-0-0-|-0-0-|
A|--3-3-|-3-3-|-3-3-|-3-3-|-x-x-|-x-x-|-x-x-|-x-x-|
F|--0-0-|-0-0-|-0-0-|-0-0-|-7-7-|-6-6-|-7-7-|-6-6-|

Verse:
(Guitar One)
E|--0-0-|-0-0-|-0-0-|-0-0-|
C|--0-0-|-0-0-|-2-4-|-0-0-|
G|--7-9-|-7-9-|-0-0-|-7-7-| (x2)
C|--0-0-|-0-0-|-4-4-|-7-7-|
A|--x-x-|-x-x-|-x-x-|-5-5-|
F|--7-7-|-6-6-|-3-3-|-6-6-|

(Guitar Two)
E|--3p0-3p0-----|
C|----------2p0-|
G|--------------| (x7)
C|--------------|
A|--------------|
F|--------------|

E|--3--1--0--|
C|-----------|
G|-----------|
C|-----------|
A|-----------|
F|-----------|

Chorus: (x2)
(Guitar One)
E|--0-0-|-0-0-|-0-0-|-0-0-|-0-0-|-0-0-|-0-0-|-0-0-|
C|--0-0-|-0-0-|-0-0-|-0-0-|-0-0-|-0-0-|-0-0-|-0-0-|
G|--5-5-|-5-5-|-5-5-|-5-5-|-7-7-|-7-7-|-7-7-|-7-7-|
C|--5-5-|-5-5-|-5-5-|-5-5-|-0-0-|-0-0-|-0-0-|-0-0-|
A|--3-3-|-3-3-|-3-3-|-3-3-|-x-x-|-x-x-|-x-x-|-x-x-|
F|--0-0-|-0-0-|-0-0-|-0-0-|-7-7-|-6-6-|-7-7-|-6-6-|

Bridge: (x2)
(Guitar One)
E|--0-0-|-0-0-|-0-0-|-0-0-|
C|--0-0-|-0-0-|-0-0-|-0-0-|
G|--0-0-|-0-0-|-7-7-|-7-7-|
C|--0-0-|-0-0-|-0-0-|-0-0-|
A|--3-3-|-3-3-|-x-x-|-x-x-|
F|--0-0-|-0-0-|-7-7-|-6-6-|

Chorus: (x1)
(Guitar One)
E|--0-0-|-0-0-|-0-0-|-0-0-|-0-0-|-0-0-|-0-0-|-0-0-|
C|--0-0-|-0-0-|-0-0-|-0-0-|-0-0-|-0-0-|-0-0-|-0-0-|
G|--5-5-|-5-5-|-5-5-|-5-5-|-7-7-|-7-7-|-7-7-|-7-7-|
C|--5-5-|-5-5-|-5-5-|-5-5-|-0-0-|-0-0-|-0-0-|-0-0-|
A|--3-3-|-3-3-|-3-3-|-3-3-|-x-x-|-x-x-|-x-x-|-x-x-|
F|--0-0-|-0-0-|-0-0-|-0-0-|-7-7-|-6-6-|-7-7-|-6-6-|

Riff: (x8)
(Guitar One)
E|--0h1p0h1--------------|
C|---------0h2/4\2p0-----|
G|------------------0h2--|
C|-----------------------|
A|-----------------------|
F|-----------------------|

Chorus: (x2)
(Guitar One)
E|--0-0-|-0-0-|-0-0-|-0-0-|-0-0-|-0-0-|-0-0-|-0-0-|
C|--0-0-|-0-0-|-0-0-|-0-0-|-0-0-|-0-0-|-0-0-|-0-0-|
G|--5-5-|-5-5-|-5-5-|-5-5-|-7-7-|-7-7-|-7-7-|-7-7-|
C|--5-5-|-5-5-|-5-5-|-5-5-|-0-0-|-0-0-|-0-0-|-0-0-|
A|--3-3-|-3-3-|-3-3-|-3-3-|-x-x-|-x-x-|-x-x-|-x-x-|
F|--0-0-|-0-0-|-0-0-|-0-0-|-7-7-|-6-6-|-7-7-|-6-6-|



************************************

| x  Dead note
| p  Pull-off
| h  Hammer-on
| /  Slide up
| \  Slide down

data-matched-content-ui-type="image_card_stacked"

Almost there ...

Sign in to get your own page with links to favourite songs and more. You are just one click away...

Login with Facebook Login with Google