Search tabs and chords

Search for song, artist or band

Log in

One click and you are in

Login with Facebook Login with Google

Why sign up and log in

Guitar Tabs Explorer
Hot Mulligan guitar tabs for Im tuning to o-positive

I'm Tuning To O-positive tab by Hot Mulligan

Hot Mulligan guitar tabs for Im tuning to o-positive

Guitar tabs

--------------------------------------------------------------------------------------------------------------
                                    Hot Mulligan - I'm Tuning to O-Positive
--------------------------------------------------------------------------------------------------------------

Band: Hot Mulligan
Album: Honest & Cunning
Track: 4

Tuning: A chord diagramFF A chord diagramA majorA A chord diagramC majorC A chord diagramG MajorG A chord diagramC majorC A chord diagramE MajorE

Intro:

E|-----------------------------------|-----------------------------------|
C|--0-0-0-0-0-0-0-0-0----------------|-----------------------------------|
G|--0-0-0-0-0-0-0-0-0----------------|--5-5-5-5-5-5-5-5-5-5-5-5-5-5-5-5--|
C|--0-0-0-0-0-0-0-0-0----------------|--5-5-5-5-5-5-5-5-5-5-5-5-5-5-5-5--|
A|--x-x-x-x-x-x-x-x-x----------------|--3-3-3-3-3-3-3-3-3-3-3-3-3-3-3-3--|
F|--7-7-7-7-7-7-7-7-7----------------|--0-0-0-0-0-0-0-0-0-0-0-0-0-0-0-0--|

E|-----------------------------------|-----------------------------------|
C|--0-0-0-0-0-0-0-0-0-0-0-0-0-0-0-0--|-----------------------------------|
G|--0-0-0-0-0-0-0-0-0-0-0-0-0-0-0-0--|--5-5-5-5-5-5-5-5-5-5-5-5-5~-------|
C|--0-0-0-0-0-0-0-0-0-0-0-0-0-0-0-0--|--5-5-5-5-5-5-5-5-5-5-5-5-5~-------|
A|--x-x-x-x-x-x-x-x-x-x-x-x-x-x-x-x--|--3-3-3-3-3-3-3-3-3-3-3-3-3~-------|
F|--7-7-7-7-7-7-7-7-7-7-7-7-7-7-7-7--|--0-0-0-0-0-0-0-0-0-0-0-0-0~-------|


Pre Chorus:

Guitar 1
E|----------------------------|------------------------------------|
C|----------------------------|------------------------------------|
G|--------7--------7/9p0--5~--|--------7--------7/9p0--5~---5-5-5--|
C|-----9-----0------------5~--|-----9-----0------------5~---5-5-5--|
A|--0-----------5---------3~--|--0-----------5---------3~---3-3-3--|
F|------------------------0~--|------------------------0~---0-0-0--|

Guitar 2
E|--3~----------1~--------0~--|--3~----------1~--------0~---0-0-0--|
C|----------------------------|------------------------------------|
G|----------------------------|------------------------------------|
C|----------------------------|------------------------------------|
A|----------------------------|------------------------------------|
F|----------------------------|------------------------------------|

Chorus:

E|------0-----0--------0-------0-------------------------0---12----------|
C|----0---0----------0---0---0---0---------------9p7p0-----0----12----0--|
G|----------7---7-5------------------5/7p0-0-9p0-------0-----------12----| x2
C|--0----------------------0---------------------------------------------|
A|-----------------------------------------------------------------------|
F|---------------------------------0-------------------------------------|

E|------0-----0--------0-------0-------|
C|----0---0----------0---0---0---0-----|
G|----------7---7-5--------4-------5~--|
C|--0------------------------------5~--|
A|---------------------------------3~--|
F|---------------------------------0~--|


Verse:

E|-------------------------------------------------------|
C|--------0--0-0-------0--0-0-------0--0-0-------0--0-0--|
G|--------0--0-0-------0--0-0-------0--0-0-------0--0-0--|
C|--0--0--0--0-0-0--0--0--0-0-0--0--0--0-0-0--0--0--0-0--|
A|--x--x--x--x-x-x--x--x--x-x-x--x--x--x-x-x--x--x--x-x--|
F|--7--7--7--7-7-7--7--7--7-7-7--7--7--7-7-7--7--7--7-7--|
    .  .         .  .         .  .         .  .

E|-------------------------------------------------------|
C|-------------------------------------------------------|
G|--------5--5-5-------5--5-5-------7--7-7-------7--7-7--|
C|--------5--5-5-------5--5-5-------5--5-5-------5--5-5--|
A|--3--3--3--3-3-3--3--3--3-3-3--3--3--3-3-3--3--3--3-3--|
F|--0--0--0--0-0-0--0--0--0-0-0--0--0--0-0-0--0--0--0-0--|
    .  .         .  .         .  .         .  .

E|-------------------------------------------------------|
C|--------0--0-0-------0--0-0-------0--0-0-------0--0-0--|
G|--------0--0-0-------0--0-0-------0--0-0-------0--0-0--|
C|--0--0--0--0-0-0--0--0--0-0-0--0--0--0-0-0--0--0--0-0--|
A|--x--x--x--x-x-x--x--x--x-x-x--x--x--x-x-x--x--x--x-x--|
F|--7--7--7--7-7-7--7--7--7-7-7--7--7--7-7-7--7--7--7-7--|
    .  .         .  .         .  .         .  .

E|-------------------------------------------------------|
C|-------------------------------------------------------|
G|--------5--5-5-------5--5-5-------7--7-7-------7--7-7--|
C|--------5--5-5-------5--5-5-------5--5-5-------5--5-5--|
A|--3--3--3--3-3-3--3--3--3-3-3--3--3--3-3-3--3--3--3-3--|
F|--0--0--0--0-0-0--0--0--0-0-0--0--0--0-0-0--0--0--0-0--|
    .  .         .  .         .  .         .  .

E|-------------------------------------------------------|
C|--------0--0-0-------0--0-0-------0--0-0-------0--0-0--|
G|--------0--0-0-------0--0-0-------0--0-0-------0--0-0--|
C|--0--0--0--0-0-0--0--0--0-0-0--0--0--0-0-0--0--0--0-0--|
A|--x--x--x--x-x-x--x--x--x-x-x--x--x--x-x-x--x--x--x-x--|
F|--7--7--7--7-7-7--7--7--7-7-7--7--7--7-7-7--7--7--7-7--|
    .  .         .  .         .  .         .  .

E|-------------------------------------------------------|
C|-------------------------------------------------------|
G|--------5--5-5-------5--5-5-------7--7-7-------7--7-7--|
C|--------5--5-5-------5--5-5-------5--5-5-------5--5-5--|
A|--3--3--3--3-3-3--3--3--3-3-3--3--3--3-3-3--3--3--3-3--|
F|--0--0--0--0-0-0--0--0--0-0-0--0--0--0-0-0--0--0--0-0--|
    .  .         .  .         .  .         .  .

E|-------------------------------------------------------|
C|--------0--0-0-------0--0-0-------0--0-0-------0--0-0--|
G|--------0--0-0-------0--0-0-------0--0-0-------0--0-0--|
C|--0--0--0--0-0-0--0--0--0-0-0--0--0--0-0-0--0--0--0-0--|
A|--x--x--x--x-x-x--x--x--x-x-x--x--x--x-x-x--x--x--x-x--|
F|--7--7--7--7-7-7--7--7--7-7-7--7--7--7-7-7--7--7--7-7--|
    .  .         .  .         .  .         .  .

E|------|
C|------|
G|--5~--|
C|--5~--|
A|--3~--|
F|--0~--|


Pre Chorus:

E|----------------------------|-------------------------------------|
C|----------------------------|-------------------------------------|
G|--------7--------7/9p0--5~--|--------7--------7/9p0--5~--5-5-5-5--|
C|-----9-----0------------5~--|-----9-----0------------5~--5-5-5-5--|
A|--0-----------5---------3~--|--0-----------5---------3~--3-3-3-3--|
F|------------------------0~--|------------------------0~--0-0-0-0--|


Chorus:

E|------0-----0--------0-------0-------------------------0---12----------|
C|----0---0----------0---0---0---0---------------9p7p0-----0----12----0--|
G|----------7---7-5------------------5/7p0-0-9p0-------0-----------12----| x2
C|--0----------------------0---------------------------------------------|
A|-----------------------------------------------------------------------|
F|---------------------------------0-------------------------------------|

E|------0-----0--------0-------0------------------------------------|
C|----0---0----------0---0---0---0----------------------------------|
G|----------7---7-5--------4-------5---5-5-5-5-5-5-5-5-5-5-5-5-5-5--|
C|--0------------------------------5---5-5-5-5-5-5-5-5-5-5-5-5-5-5--|
A|---------------------------------3---3-3-3-3-3-3-3-3-3-3-3-3-3-3--|
F|---------------------------------0---0-0-0-0-0-0-0-0-0-0-0-0-0-0--|


Bridge:

E|-----------------------------------|-----------------------------------|
C|-----------------------------------|-----------------------------------|
G|--2-2-2-2-2-2-2-2-2-2-2-2-2-2-2-2--|--5-5-5-5-5-5-5-5-5-5-5-5-5-5-5-5--|
C|--0-0-0-0-0-0-0-0-0-0-0-0-0-0-0-0--|--5-5-5-5-5-5-5-5-5-5-5-5-5-5-5-5--|
A|--x-x-x-x-x-x-x-x-x-x-x-x-x-x-x-x--|--3-3-3-3-3-3-3-3-3-3-3-3-3-3-3-3--|
F|--4-4-4-4-4-4-4-4-4-4-4-4-4-4-4-4--|--0-0-0-0-0-0-0-0-0-0-0-0-0-0-0-0--|

E|-------------------------------------|-----------------------------------|
C|-------------------------------------|-----------------------------------|
G|--2-2-2-2-2-2-2-2-9--9--7-5-5-7-5-5--|--5-5-5-5-5-5-5-5-5-5-5-5-5-5-5-5--|
C|--0-0-0-0-0-0-0-0-0--0--0-0-0-0-0-0--|--5-5-5-5-5-5-5-5-5-5-5-5-5-5-5-5--|
A|--x-x-x-x-x-x-x-x-x--x--x-x-x-x-x-x--|--3-3-3-3-3-3-3-3-3-3-3-3-3-3-3-3--|
F|--4-4-4-4-4-4-4-4-11-11-9-7-7-9-7-7--|--0-0-0-0-0-0-0-0-0-0-0-0-0-0-0-0--|


Chorus:

Guitar 1
E|-----------------------------------|-----------------------------------|
C|--0-0-0-0-0-0-0-0-0-0-0-0-0-0-0-0--|-----------------------------------|
G|--0-0-0-0-0-0-0-0-0-0-0-0-0-0-0-0--|--5-5-5-5-5-5-5-5-5-5-5-5-5-5-5-5--|
C|--0-0-0-0-0-0-0-0-0-0-0-0-0-0-0-0--|--5-5-5-5-5-5-5-5-5-5-5-5-5-5-5-5--| x2
A|--x-x-x-x-x-x-x-x-x-x-x-x-x-x-x-x--|--3-3-3-3-3-3-3-3-3-3-3-3-3-3-3-3--|
F|--7-7-7-7-7-7-7-7-7-7-7-7-7-7-7-7--|--0-0-0-0-0-0-0-0-0-0-0-0-0-0-0-0--|

E|-----------------------------------|------|-----|
C|-----------------------------------|------|--0--|
G|--2-2-2-2-2-2-2-2-2-2-2-2-2-2-2-2--|--5~--|--0--|
C|--0-0-0-0-0-0-0-0-0-0-0-0-0-0-0-0--|--5~--|--0--|
A|--x-x-x-x-x-x-x-x-x-x-x-x-x-x-x-x--|--3~--|--x--|
F|--4-4-4-4-4-4-4-4-4-4-4-4-4-4-4-4--|--0~--|--7--|

Guitar 2
E|------0-----0--------0-------0-------------------------0---12----------|
C|----0---0----------0---0---0---0---------------9p7p0-----0----12----0--|
G|----------7---7-5------------------5/7p0-0-9p0-------0-----------12----| x2
C|--0----------------------0---------------------------------------------|
A|-----------------------------------------------------------------------|
F|---------------------------------0-------------------------------------|

E|------0-----0--------0-------0-------|-----|
C|----0---0----------0---0---0---0-----|--0--|
G|----------7---7-5--------4-------5~--|--0--|
C|--0------------------------------5~--|--0--|
A|---------------------------------3~--|--x--|
F|---------------------------------0~--|--7--|



***************************************

|  x    mute string
|  /    slide up
|  p    pull off
|  ~    sustained note
|  .    palm mute

***************************************

Almost there ...

Sign in to get your own page with links to favourite songs and more. You are just one click away...

Login with Facebook Login with Google