Search tabs and chords

Search for song, artist or band

Log in

One click and you are in

Login with Facebook Login with Google

Why sign up and log in

Guitar Tabs Explorer
Hot Mulligan guitar tabs for I replied to tyler with three blue cars

I Replied To Tyler With Three Blue Cars tab by Hot Mulligan

Hot Mulligan guitar tabs for I replied to tyler with three blue cars

Guitar tabs

  • Capo on 4th
Difficulty: Intermediate

--------------------------------------------------------------------------------------------------------------
                                Hot Mulligan - I Replied To Tyler With Three Blue Cars
--------------------------------------------------------------------------------------------------------------

Band: Hot Mulligan
Album: Opportunities
Track: 6

Tuning: A chord diagramFF A chord diagramA majorA A chord diagramC majorC A chord diagramG MajorG A chord diagramC majorC A chord diagramE MajorE

CAPO: 4th fret   (Tab is in reference to the capo.. 0 = fret 4)

Cover for reference: https://www.youtube.com/watch?v=XVaRLGlbQL8

Tabbed by Matthew Langston

Intro:

E|--------------------------------------|
C|-----------------------------0--------|
G|--------0--------0--------0-----0-----| x4
C|-----0--------0--------0-----------0--|
A|--------------------------------------|
F|--4--------2--------0-----------------|

E|------------------------------------------------------------------------------------|
C|--0--0--0--0--x-x-x-x-0--0--0--0--x-x-x-x-0--0--0--0--x-x-x-x-0--0--0--4p2p0--------|
G|--0--0--0--0--x-x-x-x-0--0--0--0--x-x-x-x-0--0--0--0--x-x-x-x-0--0--0--------0h2p0--|
C|--0--0--0--0--x-x-x-x-0--0--0--0--x-x-x-x-0--0--0--0--x-x-x-x-0--0--0---------------|
A|--3--3--3--3--x-x-x-x-3--3--3--3--x-x-x-x-3--3--3--3--x-x-x-x-3--3--3---------------|
F|--0--0--0--0--x-x-x-x-4--4--4--4--x-x-x-x-2--2--2--2--x-x-x-x-2--2--2---------------|

Pre Chorus:

Guitar 1
E|------------------------------------------------------------------------------------|
C|--0--0--0--0--x-x-x-x-0--0--0--0--x-x-x-x-0--0--0--0--x-x-x-x-0--0--0--4p2p0--------|
G|--0--0--0--0--x-x-x-x-0--0--0--0--x-x-x-x-0--0--0--0--x-x-x-x-0--0--0--------0h2p0--|
C|--0--0--0--0--x-x-x-x-0--0--0--0--x-x-x-x-0--0--0--0--x-x-x-x-0--0--0---------------|
A|--3--3--3--3--x-x-x-x-3--3--3--3--x-x-x-x-3--3--3--3--x-x-x-x-3--3--3---------------|
F|--0--0--0--0--x-x-x-x-4--4--4--4--x-x-x-x-2--2--2--2--x-x-x-x-2--2--2---------------|

E|------------------------------------------------------------------------------|
C|--0--0--0--0--x-x-x-x-0--0--0--0--x-x-x-x-0--0--0--0--0--0--0--0--0--0--0--0--|
G|--0--0--0--0--x-x-x-x-0--0--0--0--x-x-x-x-0--0--0--0--0--0--0--0--0--0--0--0--|
C|--0--0--0--0--x-x-x-x-0--0--0--0--x-x-x-x-0--0--0--0--0--0--0--0--0--0--0--0--|
A|--3--3--3--3--x-x-x-x-3--3--3--3--x-x-x-x-3--3--3--3--3--3--3--3--3--3--3--3--|
F|--0--0--0--0--x-x-x-x-4--4--4--4--x-x-x-x-2--2--2--2--2--2--2--2--2--2--2--2--|

Guitar 2
E|--5p3p0----------------------|
C|--------0h2p0-------2--0-----|
G|--------------0h2p0-------0--| x3
C|-----------------------------|
A|-----------------------------|
F|-----------------------------|

E|--5p3p0----------------------------|
C|--------0h2p0-------0h2p0----------|
G|--------------0h2p0-------0h2p0-0--|
C|-----------------------------------|
A|-----------------------------------|
F|-----------------------------------|

E|--5p3p0----------------------|
C|--------0h2p0-------2--0-----|
G|--------------0h2p0-------0--| x3
C|-----------------------------|
A|-----------------------------|
F|-----------------------------|

E|--5p3p0----------------------------|
C|--------0h2p0-------0h2p0----------|
G|--------------0h2p0-------0h2p0-0--|
C|-----------------------------------|
A|-----------------------------------|
F|-----------------------------------|


Chorus:

Guitar 1
E|--------------------------------------------|--------------------------------------------|
C|--0-0-0-0-0-0-0~---0-0-0-0-0-0-0-0-0-0-0-0--|--0-0-0-0-0-0-0~---0-0-0-0-0-0-0-0-0-0-0-0--|
G|--0-0-0-0-0-0-0~---0-0-0-0-0-0-0-0-0-0-0-0--|--0-0-0-0-0-0-0~---0-0-0-0-0-0-0-0-0-0-0-0--| x4
C|--0-0-0-0-0-0-0~---0-0-0-0-0-0-0-0-0-0-0-0--|--0-0-0-0-0-0-0~---0-0-0-0-0-0-0-0-0-0-0-0--|
A|--3-3-3-3-3-3-3~---3-3-3-3-3-3-3-3-3-3-3-3--|--3-3-3-3-3-3-3~---3-3-3-3-3-3-3-3-3-3-3-3--|
F|--4-4-4-4-4-4-4~---2-2-2-2-2-2-2-2-2-2-2-2--|--0-0-0-0-0-0-0~---0-0-0-0-0-0-2-2-2-2-2-2--|

Guitar 2
E|--------------------------------------------|--------------------------------------------------------|
C|--------------------------------------------|--------------------------------------------------------|
G|--5-5-5-5-5-5-5~---9-9-9-9-9-9-7-7-7-7-7-7--|--5-5-5-5-5-5-5~---12-12-12-12-12-12-12-12-12-12-12-12--| x4
C|--x-x-x-x-x-x-x----x-x-x-x-x-x-x-x-x-x-x-x--|--x-x-x-x-x-x-x----x--x--x--x--x--x--x--x--x--x--x--x---|
A|--3-3-3-3-3-3-3~---7-7-7-7-7-7-5-5-5-5-5-5--|--3-3-3-3-3-3-3~---10-10-10-10-10-10-10-10-10-10-10-10--|
F|--------------------------------------------|--------------------------------------------------------|


Verse:

E|-----------------|
C|--0~---0~---0~---|
G|--0~---0~---0~---| x4
C|--0~---0~---0~---|
A|--3~---3~---3~---|
F|--4~---2~---0~---|

E|-------|
C|---0---|
G|---0---|
C|---0---|
A|---3---|
F|---0---|


Pre Chorus:

Guitar 1
E|-----------------------0-----------------------0--|--------------------------------------------|
C|--0--0--0--7p5p0----------0--0--0--7p5p0----------|--0--0--0--4p2p0----------0--0--0-----------|
G|--0--0--0--------0h5p0----0--0--0--------0h5p0----|--0--0--0--------0h2p0-0--0--0--0--5--5--5--| x2
C|--0--0--0-----------------0--0--0-----------------|--0--0--0-----------------0--0--0--7--7--7--|
A|--3--3--3-----------------3--3--3-----------------|--3--3--3-----------------3--3--3--8--8--8--|
F|--4--4--4-----------------4--4--4-----------------|--0--0--0-----------------0--0--0-----------|

Guitar 2
E|--5p3p0----------------------|
C|--------0h2p0-------2--0-----|
G|--------------0h2p0-------0--| x3
C|-----------------------------|
A|-----------------------------|
F|-----------------------------|

E|--5p3p0----------------------------|
C|--------0h2p0-------0h2p0----------|
G|--------------0h2p0-------0h2p0-0--|
C|-----------------------------------|
A|-----------------------------------|
F|-----------------------------------|

E|--5p3p0----------------------|
C|--------0h2p0-------2--0-----|
G|--------------0h2p0-------0--| x3
C|-----------------------------|
A|-----------------------------|
F|-----------------------------|

E|--5p3p0--------------|
C|--------0h2p0--------|
G|--------------0h2p0--|
C|---------------------|
A|---------------------|
F|---------------------|


Chorus:

Guitar 1
E|-------------------------------|-------------------------------|
C|----------------7p5p0----------|----------------7p5p0----------|
G|----------0h2p0-------0h2p0----|----------0h2p0-------0h2p0----|
C|----0h2p0-------------------0--|----0h2p0-------------------0--|
A|--0----------------------------|--0----------------------------|
F|-------------------------------|-------------------------------|

E|-------------------------------|-------------------------------|
C|----4p2p0-------7p5p0----------|----4p2p0-------7p5p0----------|
G|----------0h2p0-------0h2p0----|----------0h2p0-------0h2p0----|
C|----------------------------0--|----------------------------0--|
A|-------------------------------|-------------------------------|
F|--0----------------------------|--0----------------------------|

E|-------------------------------|-------------------------------|
C|----------------7p5p0----------|----------------7p5p0----------|
G|----------0h2p0-------0h2p0----|----------0h2p0-------0h2p0----|
C|----0h2p0-------------------0--|----0h2p0-------------------0--|
A|--0----------------------------|--0----------------------------|
F|-------------------------------|-------------------------------|

E|-------------------------------|-------------------------------|
C|----4p2p0-------7p5p0----------|----4p2p0-------7p5p0----------|
G|----------0h2p0-------0h2p0----|----------0h2p0-------0h2p0----|
C|----------------------------0--|----------------------------0--|
A|-------------------------------|-------------------------------|
F|--0----------------------------|--0----------------------------|

E|-------------------------------|-------------------------------|
C|----------------7p5p0----------|----------------7p5p0----------|
G|----------0h2p0-------0h2p0----|----------0h2p0-------0h2p0----|
C|----0h2p0-------------------0--|----0h2p0-------------------0--|
A|--0----------------------------|--0----------------------------|
F|-------------------------------|-------------------------------|

E|-------------------------------|-------------------------------|
C|----4p2p0-------7p5p0----------|----4p2p0-------7p5p0----------|
G|----------0h2p0-------0h2p0----|----------0h2p0-------0h2p0----|
C|----------------------------0--|----------------------------0--|
A|-------------------------------|-------------------------------|
F|--0----------------------------|--0----------------------------|

E|-------------------------------|-------------------------------|
C|----------------7p5p0----------|----------------7p5p0----------|
G|----------0h2p0-------0h2p0----|----------0h2p0-------0h2p0----|
C|----0h2p0-------------------0--|----0h2p0-------------------0--|
A|--0----------------------------|--0----------------------------|
F|-------------------------------|-------------------------------|

E|-------------------------------|--------------------|
C|----4p2p0-------7p5p0----------|----4p2p0-------0~--|
G|----------0h2p0-------0h2p0----|----------0h2p0-0~--|
C|----------------------------0--|----------------0~--|
A|-------------------------------|----------------3~--|
F|--0----------------------------|--0-------------0~--|


Guitar 2
E|--5p3p0----------------------|
C|--------0h2p0-------2--0-----|
G|--------------0h2p0-------0--| x3
C|-----------------------------|
A|-----------------------------|
F|-----------------------------|

E|--5p3p0----------------------------|
C|--------0h2p0-------0h2p0----------|
G|--------------0h2p0-------0h2p0-0--|
C|-----------------------------------|
A|-----------------------------------|
F|-----------------------------------|

E|--5p3p0----------------------|
C|--------0h2p0-------2--0-----|
G|--------------0h2p0-------0--| x3
C|-----------------------------|
A|-----------------------------|
F|-----------------------------|

E|--5p3p0----------------------------|
C|--------0h2p0-------0h2p0----------|
G|--------------0h2p0-------0h2p0-0--|
C|-----------------------------------|
A|-----------------------------------|
F|-----------------------------------|

E|--5p3p0----------------------|
C|--------0h2p0-------2--0-----|
G|--------------0h2p0-------0--| x3
C|-----------------------------|
A|-----------------------------|
F|-----------------------------|

E|--5p3p0----------------------------|
C|--------0h2p0-------0h2p0----------|
G|--------------0h2p0-------0h2p0-0--|
C|-----------------------------------|
A|-----------------------------------|
F|-----------------------------------|

E|--5p3p0----------------------|
C|--------0h2p0-------2--0-----|
G|--------------0h2p0-------0--| x3
C|-----------------------------|
A|-----------------------------|
F|-----------------------------|

E|--5p3p0-----------------|
C|--------0h2p0-----------|
G|--------------0h2p0-0~--|
C|------------------------|
A|------------------------|
F|------------------------|


Bridge:

Guitar 1
E|------------------------------------------------------------------------------------|
C|--0--0--0--0--x-x-x-x-0--0--0--0--x-x-x-x-0--0--0--0--x-x-x-x-0--0--0--4p2p0--------|
G|--0--0--0--0--x-x-x-x-0--0--0--0--x-x-x-x-0--0--0--0--x-x-x-x-0--0--0--------0h2p0--|
C|--0--0--0--0--x-x-x-x-0--0--0--0--x-x-x-x-0--0--0--0--x-x-x-x-0--0--0---------------|
A|--3--3--3--3--x-x-x-x-3--3--3--3--x-x-x-x-3--3--3--3--x-x-x-x-3--3--3---------------|
F|--0--0--0--0--x-x-x-x-4--4--4--4--x-x-x-x-2--2--2--2--x-x-x-x-2--2--2---------------|

E|------------------------------------------------------------------------------|
C|--0--0--0--0--x-x-x-x-0--0--0--0--x-x-x-x-0--0--0--0--0--0--0--0--0--0--0--0--|
G|--0--0--0--0--x-x-x-x-0--0--0--0--x-x-x-x-0--0--0--0--0--0--0--0--0--0--0--0--|
C|--0--0--0--0--x-x-x-x-0--0--0--0--x-x-x-x-0--0--0--0--0--0--0--0--0--0--0--0--|
A|--3--3--3--3--x-x-x-x-3--3--3--3--x-x-x-x-3--3--3--3--3--3--3--3--3--3--3--3--|
F|--0--0--0--0--x-x-x-x-4--4--4--4--x-x-x-x-2--2--2--2--2--2--2--2--2--2--2--2--|

Guitar 2
E|----------------|----------------|----------------|----------------|
C|--/7-0---2---0--|--/7-0---2---0--|--/7-0---2---0--|--9p7p0---------|
G|-------0---0----|-------0---0----|-------0---0----|---------9p7p0--| x2
C|----------------|----------------|----------------|----------------|
A|----------------|----------------|----------------|----------------|
F|----------------|----------------|----------------|----------------|


Outro:

E|--------------------------------------|
C|-----------------------------0--------|
G|--------0--------0--------0-----0-----| x3
C|-----0--------0--------0-----------0--|
A|--------------------------------------|
F|--4--------2--------0-----------------|

E|-----------------------|
C|--------------------0--|
G|--------0--------0--0--|
C|-----0--------0-----0--|
A|--------------------3--|
F|--4--------2--------0--|



**************************************

|  x    mute note
|  p    pull off
|  h    hammer on
|  ~    sustained note
|  /    slide up

**************************************

Almost there ...

Sign in to get your own page with links to favourite songs and more. You are just one click away...

Login with Facebook Login with Google