Search tabs and chords

Search for song, artist or band

Log in

One click and you are in

Login with Facebook Login with Google

Why sign up and log in

Guitar Tabs Explorer
Hot Mulligan guitar chords for How do you know its not armadillo shells

How Do You Know Its Not Armadillo Shells chords by Hot Mulligan

Hot Mulligan guitar chords for How do you know its not armadillo shells

Guitar chords

1

Intro/Verse

E|---------------------------|---------------------------|
C|--0---0-x-x-0--0--0--0--0--|--0---0-x-x-0---0-0--0--0--|
G|--0---0-x-x-0--0--0--0--0--|--0---0-x-x-0---0-0--0--0--|
C|--0---0-x-x-0--0--0--0--0--|--0---0-x-x-0---0-0--0--0--| x4
A|--3---3-x-x-3--3--3--3--3--|--3---3-x-x-3---3-3--3--3--|
F|--0---0-x-x-0--0--0--0--0--|--4---4-x-x-2---2-2--2--2--|
Pre Chorus

E|-----------0-------------0-----|-----------0-----------------|
C|----0---------0---0---------0--|----0---------0-0~--------x--|
G|-------0-------------0---------|-------0--------0~--------x--|
C|-------------------------------|----------------0~--------x--|
A|-------------------------------|----------------2~--------x--|
F|--4------2------0------0-------|--4------2------0~--------x--|


Chorus

E|---------------------------|---------------------------|
C|--0---0-x-x-0--0--0--0--0--|--0---0-x-x-0---0-0--0--0--|
G|--0---0-x-x-0--0--0--0--0--|--0---0-x-x-0---0-0--0--0--|
C|--0---0-x-x-0--0--0--0--0--|--0---0-x-x-0---0-0--0--0--| x3
A|--3---3-x-x-3--3--3--3--3--|--3---3-x-x-3---3-3--3--3--|
F|--0---0-x-x-0--0--0--0--0--|--2---2-x-x-4---4-4--4--4--|

E|---------------------------|---------------------------|
C|--0---0-x-x-0--0--0--0--0--|--0---0-x-x-0---0-0--0--0--|
G|--0---0-x-x-0--0--0--0--0--|--0---0-x-x-0---0-0--0--0--|
C|--0---0-x-x-0--0--0--0--0--|--0---0-x-x-0---0-0--0--0--|
A|--3---3-x-x-3--3--3--3--3--|--3---3-x-x-3---3-3--3--3--|
F|--0---0-x-x-0--0--0--0--0--|--4---4-x-x-2---2-2--2--2--|

Post Chorus

E|---------------------|---------------------|
C|--0--0---0---0---0~--|--0--0---0---0---0~--|
G|--0--0---0---0---0~--|--0--0---0---0---0~--|
C|--0--0---0---0---0~--|--0--0---0---0---0~--|
A|--3--3---3---3---3~--|--3--3---3---3---3~--|
F|--4--4---2---2---0~--|--4--4---2---2---0~--|


Verse

E|---------------------------|---------------------------|
C|--0---0-x-x-0--0--0--0--0--|--0---0-x-x-0---0-0--0--0--|
G|--0---0-x-x-0--0--0--0--0--|--0---0-x-x-0---0-0--0--0--|
C|--0---0-x-x-0--0--0--0--0--|--0---0-x-x-0---0-0--0--0--| x4
A|--3---3-x-x-3--3--3--3--3--|--3---3-x-x-3---3-3--3--3--|
F|--0---0-x-x-0--0--0--0--0--|--4---4-x-x-2---2-2--2--2--|


Pre Chorus

E|-----------0--------|
C|----0---------0-0~--|
G|-------0--------0~--|
C|----------------0~--|
A|----------------2~--|
F|--4------2------0~--|


Chorus

E|---------------------------|---------------------------|
C|--0---0-x-x-0--0--0--0--0--|--0---0-x-x-0---0-0--0--0--|
G|--0---0-x-x-0--0--0--0--0--|--0---0-x-x-0---0-0--0--0--|
C|--0---0-x-x-0--0--0--0--0--|--0---0-x-x-0---0-0--0--0--| x3
A|--3---3-x-x-3--3--3--3--3--|--3---3-x-x-3---3-3--3--3--|
F|--0---0-x-x-0--0--0--0--0--|--2---2-x-x-4---4-4--4--4--|

E|---------------------------|---------------------------|
C|--0---0-x-x-0--0--0--0--0--|--0---0-x-x-0---0-0--0--0--|
G|--0---0-x-x-0--0--0--0--0--|--0---0-x-x-0---0-0--0--0--|
C|--0---0-x-x-0--0--0--0--0--|--0---0-x-x-0---0-0--0--0--|
A|--3---3-x-x-3--3--3--3--3--|--3---3-x-x-3---3-3--3--3--|
F|--0---0-x-x-0--0--0--0--0--|--4---4-x-x-2---2-2--2--2--|


Bridge

Guitar 1
E|-------------------|-------------------------|
C|--0~------0~---0~--|--0~---------0--0-0-0-0--|
G|--0~------0~---0~--|--0~---------0--0-0-0-0--|
C|--0~------0~---0~--|--0~---------0--0-0-0-0--| x3
A|--3~------3~---x~--|--3~---------3--3-3-3-3--|
F|--4~------2~---7~--|--0~---------0--0-0-0-0--|

E|-------------------|----------------------------------------------------------|
C|--0~------0~---0~--|--0--0--0--0--0--0--0--0--0---0---0---0---0---0---0---0---|
G|--0~------0~---0~--|--0--0--0--0--0--0--0--0--0---0---0---0---0---0---0---0---|
C|--0~------0~---0~--|--0--0--0--0--0--0--0--0--0---0---0---0---0---0---0---0---|
A|--3~------3~---x~--|--x--x--x--x--x--x--x--x--x---x---x---x---x---x---x---x---|
F|--4~------2~---7~--|--9--9--9--9--9--9--9--9--12--12--12--12--12--12--12--12--|

Guitar 2
E|-----------------------------------|-----------------------------------|
C|-----------------------------------|-----------------------------------|
G|--5-5-5-5-5-5-5-5-5-5-5-5-5-5-5-5--|--4-4-4-4-4-4-4-4-5-5-5-5-5-5-5-7--|
C|--x-x-x-x-x-x-x-x-x-x-x-x-x-x-x-x--|--x-x-x-x-x-x-x-x-x-x-x-x-x-x-x-x--|
A|--3-3-3-3-3-3-3-3-3-3-3-3-3-3-3-3--|--2-2-2-2-2-2-2-2-3-3-3-3-3-3-3-5--|
F|-----------------------------------|-----------------------------------|

E|-----------------------------------|-----------------------------------|
C|-----------------------------------|-----------------------------------|
G|--5-5-5-5-5-5-5-5-5-5-5-5-5-5-5-5--|--5-5-5-5-5-5-5-5-5-4-4-4-4-4-4-4--|
C|--x-x-x-x-x-x-x-x-x-x-x-x-x-x-x-x--|--x-x-x-x-x-x-x-x-x-x-x-x-x-x-x-x--|
A|--3-3-3-3-3-3-3-3-3-3-3-3-3-3-3-3--|--3-3-3-3-3-3-3-3-3-2-2-2-2-2-2-2--|
F|-----------------------------------|-----------------------------------|

E|-----------------------------------|-----------------------------------|
C|-----------------------------------|-----------------------------------|
G|--5-5-5-5-5-5-5-5-5-5-5-5-5-5-5-5--|--4-4-4-4-4-4-4-4-5-5-5-5-7-7-7-7--|
C|--x-x-x-x-x-x-x-x-x-x-x-x-x-x-x-x--|--x-x-x-x-x-x-x-x-x-x-x-x-x-x-x-x--|
A|--3-3-3-3-3-3-3-3-3-3-3-3-3-3-3-3--|--2-2-2-2-2-2-2-2-3-3-3-3-5-5-5-5--|
F|-----------------------------------|-----------------------------------|

E|-----------------------------------|-----------------------------------|
C|-----------------------------------|-----------------------------------|
G|--9-9-9-9-9-9-9-9-4-4-4-4-4-4-4-4--|--5-5-5-5-5-5-5-5-7-7-7-7-7-7-7-7--|
C|--x-x-x-x-x-x-x-x-x-x-x-x-x-x-x-x--|--x-x-x-x-x-x-x-x-x-x-x-x-x-x-x-x--|
A|--7-7-7-7-7-7-7-7-2-2-2-2-2-2-2-2--|--3-3-3-3-3-3-3-3-5-5-5-5-5-5-5-5--|
F|-----------------------------------|-----------------------------------|

E|-----------------------------------|-----------------------------------|
C|-----------------------------------|-----------------------------------|
G|--5-5-5-5-5-5-5-5-5-5-5-5-5-5-5-5--|--4-4-4-4-4-4-4-4-5-5-5-5-5-5-5-7--|
C|--x-x-x-x-x-x-x-x-x-x-x-x-x-x-x-x--|--x-x-x-x-x-x-x-x-x-x-x-x-x-x-x-x--|
A|--3-3-3-3-3-3-3-3-3-3-3-3-3-3-3-3--|--2-2-2-2-2-2-2-2-3-3-3-3-3-3-3-5--|
F|-----------------------------------|-----------------------------------|

E|-----------------------------------|-----------------------------------|
C|-----------------------------------|-----------------------------------|
G|--5-5-5-5-5-5-5-5-5-5-5-5-5-5-5-5--|--5-5-5-5-5-5-5-5-5-4-4-4-4-4-4-4--|
C|--x-x-x-x-x-x-x-x-x-x-x-x-x-x-x-x--|--x-x-x-x-x-x-x-x-x-x-x-x-x-x-x-x--|
A|--3-3-3-3-3-3-3-3-3-3-3-3-3-3-3-3--|--3-3-3-3-3-3-3-3-3-2-2-2-2-2-2-2--|
F|-----------------------------------|-----------------------------------|

E|-----------------------------------|-----------------------------------|
C|-----------------------------------|-----------------------------------|
G|--5-5-5-5-5-5-5-5-5-5-5-5-5-5-5-5--|--4-4-4-4-4-4-4-4-5-5-5-5-7-7-7-7--|
C|--x-x-x-x-x-x-x-x-x-x-x-x-x-x-x-x--|--x-x-x-x-x-x-x-x-x-x-x-x-x-x-x-x--|
A|--3-3-3-3-3-3-3-3-3-3-3-3-3-3-3-3--|--2-2-2-2-2-2-2-2-3-3-3-3-5-5-5-5--|
F|-----------------------------------|-----------------------------------|

E|--------------------------|----------------------------------|
C|--------------------------|----------------------------------|
G|--9--9--9--9--9--9--9--9--|--12--12--12--12--12--12--12--12--|
C|--x--x--x--x--x--x--x--x--|--x---x---x---x---x---x---x---x---|
A|--7--7--7--7--7--7--7--7--|--10--10--10--10--10--10--10--10--|
F|--------------------------|----------------------------------|


Outro

E|------------------------|---------------------------|
C|--0--0---0---0---0---0--|--4p2p0-----------4p2p0----|
G|--0--0---0---0---0---0--|--------0---------------0--|
C|--0--0---0---0---0---0--|---------------------------| x3
A|--3--3---3---3---3---3--|-----------3-3-3-----------|
F|--4--4---2---2---0---0--|-----------0-0-0-----------|
                                      . . .
E|---------------------|
C|--0--0---0---0---0~--|
G|--0--0---0---0---0~--|
C|--0--0---0---0---0~--|
A|--3--3---3---3---3~--|
F|--4--4---2---2---0~--|


**************************************

|  x    mute note
|  ~    sustained note
|  p    pull off

**************************************

Other versions of How Do You Know Its Not Armadillo Shells

How do you know its not armadillo shells (Ver. 2)Chords

Almost there ...

Sign in to get your own page with links to favourite songs and more. You are just one click away...

Login with Facebook Login with Google