Log in

One click and you are in

Login with Facebook Login with Google

Why sign up and log in

Guitar Tabs Explorer
Hot Chocolate bass tabs for Every 1s a winner

Bass tabs

  • Difficulty: Beginner
Tuning: Standard (E A D G)

G|---------------------------------------------------------------|
D|------------------------------------------1--1-1--1------------|
A|-----------------------------------------------------1--1-1--1-|
E|-1--1-1--1-1--1-1--1-1--1-1--1-1--1-1--1-----------------------|
G|----------------------------------------------------------------|
D|----------------------1--1-1--1---------------------------------|
A|---------------------------------1--1-1--1----------------------|
E|-1--1-1--1-1--1-1--1------------------------1--1-1--1-1--1-1--1-|


Verse 1:
G|--------------------------------------------------------------------|
D|--------------------------------------------------------------------|
A|--------------------------------------------------------------------|
E|-1--1-1--1-1--1-1--1-1--1-1--1-1--1-1--1-1--1-1--1-1--1-1--1-1--1-1-|

G|-------------|
D|-------------|
A|-------------|
E|-1-1--1-1--1-|


Chorus:
G|-----------------------------------------------------------------------|
D|-1--1-1--1---3--3-3--3---1--1-1--1---3--3-3--3---1--1-1--1---3--3-3--3-|
A|-----------------------------------------------------------------------|
E|-----------------------------------------------------------------------|

G|-------------------------------------------|
D|-1--1-1--1---------------------------------|
A|------------1--1-1--1----------------------|
E|-----------------------1--1-1--1-1--1-1--1-|

Interlude 1:         (Play This Bit x2)
G|--------------------------------------------|
D|-1--1-1--1----------------------------------|
A|------------1--1-1--1-----------------------|
E|------------------------1--1-1--1-1--1-1--1-|

Verse 2:
G|--------------------------------------------------------------------|
D|--------------------------------------------------------------------|
A|--------------------------------------------------------------------|
E|-1--1-1--1-1--1-1--1-1--1-1--1-1--1-1--1-1--1-1--1-1--1-1--1-1--1-1-|

G|-------------|
D|-------------|
A|-------------|
E|-1-1--1-1--1-|


Chorus:
G|-----------------------------------------------------------------------|
D|-1--1-1--1---3--3-3--3---1--1-1--1---3--3-3--3---1--1-1--1---3--3-3--3-|
A|-----------------------------------------------------------------------|
E|-----------------------------------------------------------------------|

G|-------------------------------------------|
D|-1--1-1--1---------------------------------|
A|------------1--1-1--1----------------------|
E|-----------------------1--1-1--1-1--1-1--1-|

Interlude 2:         (Play This Bit x2)
G|--------------------------------------------|
D|-1--1-1--1----------------------------------|
A|------------1--1-1--1-----------------------|
E|------------------------1--1-1--1-1--1-1--1-|

G|-----------------------------------------------------------------------|
D|-----------------------------------------------------------------------|
A|------------------1-------------------1-------------------1------------|
E|-1--1-1--1-1--1-1----1--1-1--1-1--1-1----1--1-1--1-1--1-1----1--1-1--1-|

               (Play This Bit x4)
G|--------------------------------------------|
D|-1--1-1--1----------------------------------|
A|------------1--1-1--1-----------------------|
E|------------------------1--1-1--1-1--1-1--1-|


Chorus:
G|-----------------------------------------------------------------------|
D|-1--1-1--1---3--3-3--3---1--1-1--1---3--3-3--3---1--1-1--1---3--3-3--3-|
A|-----------------------------------------------------------------------|
E|-----------------------------------------------------------------------|

G|-------------------------------------------|
D|-1--1-1--1---------------------------------|
A|------------1--1-1--1----------------------|
E|-----------------------1--1-1--1-1--1-1--1-|


Outro: (Repeat Outro To Fade/End)
G|-------------------------------------------|
D|-1--1-1--1---------------------------------|
A|------------1--1-1--1----------------------|
E|-----------------------1--1-1--1-1--1-1--1-|

Almost there ...

Sign in to get your own page with links to favourite songs and more. You are just one click away...

Login with Facebook Login with Google