Log in

One click and you are in

Login with Facebook Login with Google

Why sign up and log in

Guitar Tabs Explorer
Hot Butter bass tabs for Popcorn

Bass tabs with lyrics

Gtr I (E A D G) - 'Untitled'


 Q=120
 4/4
 Gtr I
 W     W     S S S S S S S S S S S S S S S S
|----------|----------|-----4-------4-------4---------4-|
|----------|----------|-------4-------4-------4---0-4---|
|----------|----------|-2---------------2---------------|
|----------|----------|---------2---------------2-------|
 S S S S S S S S S S S S S S S S  S S S S S S S S S S S S S S S S
|-----4-------4-------4---------4-|-----4-------4-------4---------4-|
|-------4-------4-------4---0-4---|-------4-------4-------4---0-4---|
|-2---------------2---------------|-2---------------2---------------|
|---------2---------------2-------|---------2---------------2-------|


 S S S S S S S S S S S S S S S S  S S S S S S S S S S S S S S S S
|-----4-------4-------4---------4-|-----4-------4-------4---------4-|
|-------4-------4-------4---0-4---|-------4-------4-------4---0-4---|
|-2---------------2---------------|-2---------------2---------------|
|---------2---------------2-------|---------2---------------2-------|


 S S S S S S S S S S S S S S S S  S S S S S S S S S S S S S S S S
|-----4-------4-------4---------4-|-----4---------4---------------2-|
|-------4-------4-------4---0-4---|-------4---0-4-------7-------2---|
|-2---------------2---------------|-2-------2-------------7---4-----|
|---------2---------------2-------|-----------------5-------5-------|


 S S S S S S S S S S S S S S S S  S S S S S S S S S S S S S S S S
|---------------0-----4---------4-|-----4-------4-------4---------4-|
|-----5-------0---------4---0-4---|-------4-------4-------4---0-4---|
|-------5---2-----2-------2-------|-2---------------2---------------|
|-3-------3-----------------------|---------2---------------2-------|

 S S S S S S S S S S S S S S S S  S S S S S S S S S S S S S S S S
|-----4-------4-------4---------4-|-----4---------4---------------2-|
|-------4-------4-------4---0-4---|-------4---0-4-------7-------2---|
|-2---------------2---------------|-2-------2-------------7---4-----|
|---------2---------------2-------|-----------------5-------5-------|


 S S S S S S S S S S S S S S S S  S S S S S S S S S S S S S S S S
|---------------0-----4---------4-|-----7-------7-------7-------2-7-|
|-----5-------0---------4---0-4---|-------7-------7-------7---4-----|
|-------5---2-----2-------2-------|-5---------------5---------------|
|-3-------3-----------------------|---------5---------------5-------|


 S S S S S S S S S S S S S S S S  S S S S S S S S S S S S S S S S
|-----7-------7-------7-------2-7-|-----11--------6-11--------------------9-|
|-------7-------7-------7---4-----|--------11---7-----------14----------9---|
|-5---------------5---------------|-9---------9----------------14----11-----|
|---------5---------------5-------|--------------------12---------12--------|


  S S S S S S S S S S S S S S S S  S S S S S S S S S S S S S S S S
|-------------------7-----7-------2-7-|-----7-------7-------7-------2-7-|
|------12---------7---------7---4-----|-------7-------7-------7---4-----|
|---------12----9-----5-------5-------|-5---------------5---------------|
|-10---------10-----------------------|---------5---------------5-------|


 S S S S S S S S S S S S S S S S  S S S S S S S S S S S S S S S S
|-----7-------7-------7-------2-7-|-----11--------6-11--------------------9-|
|-------7-------7-------7---4-----|--------11---7-----------14----------9---|
|-5---------------5---------------|-9---------9----------------14----11-----|
|---------5---------------5-------|--------------------12---------12--------|


  S S S S S S S S S S S S S S S S  S S S S S S S S S S S S S S S S
|-------------------7---------------4-|-----4-------4-------4---------4-|
|------12---------7-------9-------4---|-------4-------4-------4---0-4---|
|---------12----9-----------9---5-----|-2---------------2---------------|
|-10---------10-------7-------7-------|---------2---------------2-------|


 S S S S S S S S S S S S S S S S  S S S S S S S S S S S S S S S S
|-----4-------4-------4---------4-|-----4---------4---------------2-|
|-------4-------4-------4---0-4---|-------4---0-4-------7-------2---|
|-2---------------2---------------|-2-------2-------------7---4-----|
|---------2---------------2-------|-----------------5-------5-------|


 S S S S S S S S S S S S S S S S  S S S S S S S S S S S S S S S S
|---------------0-----4---------4-|-----4-------4-------4---------4-|
|-----5-------0---------4---0-4---|-------4-------4-------4---0-4---|
|-------5---2-----2-------2-------|-2---------------2---------------|
|-3-------3-----------------------|---------2---------------2-------|


 S S S S S S S S S S S S S S S S  S S S S S S S S S S S S S S S S
|-----4-------4-------4---------4-|-----4---------4---------------2-|
|-------4-------4-------4---0-4---|-------4---0-4-------7-------2---|
|-2---------------2---------------|-2-------2-------------7---4-----|
|---------2---------------2-------|-----------------5-------5-------|


 S S S S S S S S S S S S S S S S  S S S S S S S S S S S S S S S S
|---------------0-----4---------4-|-----7-------7-------7-------2-7-|
|-----5-------0---------4---0-4---|-------7-------7-------7---4-----|
|-------5---2-----2-------2-------|-5---------------5---------------|
|-3-------3-----------------------|---------5---------------5-------|


 S S S S S S S S S S S S S S S S  S S S S S S S S S S S S S S S S
|-----7-------7-------7-------2-7-|-----11--------6-11--------------------9-|
|-------7-------7-------7---4-----|--------11---7-----------14----------9---|
|-5---------------5---------------|-9---------9----------------14----11-----|
|---------5---------------5-------|--------------------12---------12--------|


  S S S S S S S S S S S S S S S S  S S S S S S S S S S S S S S S S
|-------------------7-----7-------2-7-|-----7-------7-------7-------2-7-|
|------12---------7---------7---4-----|-------7-------7-------7---4-----|
|---------12----9-----5-------5-------|-5---------------5---------------|
|-10---------10-----------------------|---------5---------------5-------|


 S S S S S S S S S S S S S S S S  S S S S S S S S S S S S S S S S
|-----7-------7-------7-------2-7-|-----11--------6-11--------------------9-|
|-------7-------7-------7---4-----|--------11---7-----------14----------9---|
|-5---------------5---------------|-9---------9----------------14----11-----|
|---------5---------------5-------|--------------------12---------12--------|


  S S S S S S S S S S S S S S S S  W     W
|-------------------7---------------4-|----------|------|
|------12---------7-------9-------4---|----------|------|
|---------12----9-----------9---5-----|----------|------|
|-10---------10-------7-------7-------|----------|------|


 W     W     W     W
|----------|----------|----------|------|
|----------|----------|----------|------|
|----------|----------|----------|------|
|----------|----------|----------|------|


 W     W     W     W
|----------|----------|----------|------|
|----------|----------|----------|------|
|----------|----------|----------|------|
|----------|----------|----------|------|


 W     W     W     W
|----------|----------|----------|------|
|----------|----------|----------|------|
|----------|----------|----------|------|
|----------|----------|----------|------|


 W     W     S S S S S S S S S S S S S S S S
|----------|----------|-----4-------4-------4---------4--|
|----------|----------|-------4-------4-------4---0-4----|
|----------|----------|-2---------------2----------------|
|----------|----------|---------2---------------2--------|


 S S S S S S S S S S S S S S S S  S S S S S S S S S S S S S S S S
|-----4-------4-------4---------4-|-----4---------4---------------2-|
|-------4-------4-------4---0-4---|-------4---0-4-------7-------2---|
|-2---------------2---------------|-2-------2-------------7---4-----|
|---------2---------------2-------|-----------------5-------5-------|


 S S S S S S S S S S S S S S S S  S S S S S S S S S S S S S S S S
|---------------0-----4---------4-|-----4-------4-------4---------4-|
|-----5-------0---------4---0-4---|-------4-------4-------4---0-4---|
|-------5---2-----2-------2-------|-2---------------2---------------|
|-3-------3-----------------------|---------2---------------2-------|


 S S S S S S S S S S S S S S S S  S S S S S S S S S S S S S S S S
|-----4-------4-------4---------4-|-----4---------4---------------2-|
|-------4-------4-------4---0-4---|-------4---0-4-------7-------2---|
|-2---------------2---------------|-2-------2-------------7---4-----|
|---------2---------------2-------|-----------------5-------5-------|


 S S S S S S S S S S S S S S S S  S S S S S S S S S S S S S S S S
|---------------0-----4---------4-|-----7-------7-------7-------2-7-|
|-----5-------0---------4---0-4---|-------7-------7-------7---4-----|
|-------5---2-----2-------2-------|-5---------------5---------------|
|-3-------3-----------------------|---------5---------------5-------|


 S S S S S S S S S S S S S S S S  S S S S S S S S S S S S S S S S
|-----7-------7-------7-------2-7-|-----11--------6-11--------------------9-|
|-------7-------7-------7---4-----|--------11---7-----------14----------9---|
|-5---------------5---------------|-9---------9----------------14----11-----|
|---------5---------------5-------|--------------------12---------12--------|


  S S S S S S S S S S S S S S S S  S S S S S S S S S S S S S S S S
|-------------------7-----7-------2-7-|-----7-------7-------7-------2-7-|
|------12---------7---------7---4-----|-------7-------7-------7---4-----|
|---------12----9-----5-------5-------|-5---------------5---------------|
|-10---------10-----------------------|---------5---------------5-------|


 S S S S S S S S S S S S S S S S  S S S S S S S S S S S S S S S S
|-----7-------7-------7-------2-7-|-----11--------6-11--------------------9-|
|-------7-------7-------7---4-----|--------11---7-----------14----------9---|
|-5---------------5---------------|-9---------9----------------14----11-----|
|---------5---------------5-------|--------------------12---------12--------|


  S S S S S S S S S S S S S S S S  S S S S S S S S S S S S S S S S
|-------------------7---------------4-|-----4-------4-------4---------4-|
|------12---------7-------9-------4---|-------4-------4-------4---0-4---|
|---------12----9-----------9---5-----|-2---------------2---------------|
|-10---------10-------7-------7-------|---------2---------------2-------|


 S S S S S S S S S S S S S S S S  S S S S S S S S S S S S S S S S
|-----4-------4-------4---------4-|-----4---------4---------------2-|
|-------4-------4-------4---0-4---|-------4---0-4-------7-------2---|
|-2---------------2---------------|-2-------2-------------7---4-----|
|---------2---------------2-------|-----------------5-------5-------|


 S S S S S S S S S S S S S S S S  S S S S S S S S S S S S S S S S
|---------------0-----4---------4-|-----4-------4-------4---------4-|
|-----5-------0---------4---0-4---|-------4-------4-------4---0-4---|
|-------5---2-----2-------2-------|-2---------------2---------------|
|-3-------3-----------------------|---------2---------------2-------|


 S S S S S S S S S S S S S S S S  S S S S S S S S S S S S S S S S
|-----4-------4-------4---------4-|-----4---------4---------------2-|
|-------4-------4-------4---0-4---|-------4---0-4-------7-------2---|
|-2---------------2---------------|-2-------2-------------7---4-----|
|---------2---------------2-------|-----------------5-------5-------|


 S S S S S S S S S S S S S S S S  S S S S E S S S S S S S S S S
|---------------0-----4---------4-|-----4-----4-------4---------4-|
|-----5-------0---------4---0-4---|-------4-----4-------4---0-4---|
|-------5---2-----2-------2-------|-2-------------2---------------|
|-3-------3-----------------------|---------2-------------2-------|


 S S S S E S S E S S S S S S  E S S E S S S S S S S S S S
|-----4-----4-----4---------4-|------------------------------|
|-------4-----4-----4---0-4---|---4-----4----------------4---|
|-2-------------2-------------|-2---5-----5-----9----------5-|
|---------2-----------2-------|-------2-----7-----10-2-------|


 E S S S S S S S S S S E S S  E E Q E E Q  E E Q Q Q
|-------------------------------|---------------|--------------|
|------------4--------------4---|---------------|--------------|
|---9----------5-----9--------5-|---------------|--------------|
|-7---10-2-------7-----10-2-----|-7------7------|---7-------7--|


 Q E S S +E E Q
|---------------------*|
|---------------------*|
|---------------------*|
|--------7-(7)--------*|



--------------------------------------------------------------------------------


Duration 🏷Legend
---------------
W - whole; H - half; Q - quarter; E - 8th; S - 16th; T - 32nd; X - 64th; a - acciaccatura
+ - note tied to previous; . - note dotted; .. - note double dotted
Uncapitalized letters represent notes that are staccato (1/2 duration)
Irregular groupings are notated above the duration line
Duration letters will always appear directly above the note/fret number it represents the
duration for. Duration letters with no fret number below them represent rests. Multi-
bar rests are notated in the form Wxn, where n is the number of bars to rest for. Low
melody durations appear below the staff

Tablature 🏷Legend
----------------
 h  - hammer-on
 p  - pull-off
 b  - bend
 pb - pre-bend
 r  - bend release (if no number after the r, then release immediately)
 /\ - slide into or out of (from/to "nowhere")
 s  - legato slide
 S  - shift slide
<n> - natural harmonic
[n] - artificial harmonic
n(n) - tapped harmonic
 ~  - vibrato
 tr - trill
 T  - tap
 TP - trem. picking
 PM - palm muting
\n/ - tremolo bar dip; n = amount to dip
 \n - tremolo bar down
 n/ - tremolo bar up
/n\ - tremolo bar inverted dip
 =  - hold bend; also acts as connecting device for hammers/pulls
 <> - volume swell (louder/softer)
 x  - on rhythm slash represents muted slash
 o  - on rhythm slash represents single note slash

Misc 🏷Legend
-----------
 | - bar
|| - double bar
||o - repeat start
o|| - repeat end
*| - double bar (ending)
 : - bar (freetime)
 $ - Segno
 & - Coda
Tempo markers - <E/E./Q/Q./H/H.> = BPM(8/16=s8/s16), where s8 = swing 8ths, s16 = swing 16ths

Almost there ...

Sign in to get your own page with links to favourite songs and more. You are just one click away...

Login with Facebook Login with Google