Log in

One click and you are in

Login with Facebook Login with Google

Why sign up and log in

Guitar Tabs Explorer
Hot Action Cop tabs for Fever for the flava

Guitar tabs with lyrics

Hot Action Cop : Fever for the Falva
Tab by Richard Bartole (bigredelmo@hotmail.com)
Any changes, email above address with subject of "Hot Action Cop Tab"

Enjoy, this song has great lyrics. It brings back the Hip hop Rock mix
to mainstream. I learned this song on my C-tuned guitar. I have it
transcribed for regular tuning. But if you want, and probably is, 1/2
step or D-tune your guitar. Rythym of the song is not displayed. After
listening to the song, your hand will catch on.
Verse 1

        "Do you think..."
e--------------------------------------
b--------------------------------------
g--------------------------------------
d------------7-9-9--------------7------
a--7-7-9-7-7----------7-7-9-7-7---9-9--
E--------------------------------------


Pre-chorus 1

	"She got the power..."
e----------------------------------------
b----------------------------------------
g--9-9-9-9-9--8-8-8----------------------
d--9-9-9-9-9--8-8-8---6-6-6--6-4-4-4-4---
a--7-7-7-7-7--6-6-6---6-6-6--6-4-4-4-4---
E---------------------4-4-4--4-2-2-2-2---


Chorus

	"Oh hey hey hey..."
e---------------------------------
b---------------------------------
g---------------------------------
d--2-2-2-2-6-6-6-6-7-7-7-7-9-9-9-9
a--2-2-2-2-6-6-6-6-7-7-7-7-9-9-9-9
E--0-0-0-0-4-4-4-4-5-5-5-5-7-7-7-7
played for 2 times

third time
e--------------------------------------------------
b--------------------------------------------------
g--------------------------------------------------
d--2-2-2-2-6-6-6-6-7-7-7-7-9-9-9-9--9-9-9-9-7-7-7-7
a--2-2-2-2-6-6-6-6-7-7-7-7-9-9-9-9--9-9-9-9-7-7-7-7
E--0-0-0-0-4-4-4-4-5-5-5-5-7-7-7-7--7-7-7-7-5-5-5-5


Verse 2
"Can I get a litte..."
Play Verse 1 with guitar two playing a palm muted A chord diagramE5E5


Pre-chorus 2
"Ya got the power..."
Play Pre-chorus 1


Chorus


Pre-chorus 3

	"I got the fever..."
e---------------------------------------
b---------------------------------------
g--9-9-9-9-9--8-8-8---------------------
d--9-9-9-9-9--8-8-8---6-6-6--6-4-4-4-4--
a--7-7-7-7-7--6-6-6---6-6-6--6-4-4-4-4--
E--7-7-7-7-7--6-6-6---4-4-4--4-2-2-2-2--


Interlude

e---------------------------------------
b---------------------------------------
g---------------------------------------
d---------------------------------------
a---------------------------------------
E--0--0-0--0/2\0-0/2\0-0/2\0-0/2/3\2\0--

in behind the interlude is guitar two play this :
e---------------------------------------------------------
b---------------------------------------------------------
g--9-9-9-9-10-10-10-10/12-12-12-12/14-14-14-14/20-20-20-20
d---------------------------------------------------------
a--7-7-7-7/-8--8--8--8/10-10-10-10/12-12-12-12/18-18-18-18
E---------------------------------------------------------


Verse 3
"Do you think that..."
Play a palm muted A chord diagramE5E5


Pre-chorus 4
"She got the power..."
Play Pre-chorus 3

Repeat Chorus


Pre-chorus 5
"I got the fever..."
Play Pre-chorus 3


Outro
Play the Interlude with out the background.


Hope you enjoy it. It is an addictive song.

Richard

Almost there ...

Sign in to get your own page with links to favourite songs and more. You are just one click away...

Login with Facebook Login with Google