Trouble With A Capital T by Horslips

Trouble With A Capital T tab by Horslips

Guitar tabs

-------------------------------------------------------------------------------
			   Trouble with a Capital T - Horslips
-------------------------------------------------------------------------------
Tabbed by: Graham O' Brien
Email: ansionnachcliste@yahoo.co.uk


Intro: Flute: Transcribed For Guitar

Gtr 1
e|-------------------------------------------|
B|-------------12--12--12--12----12--14--15--|
G|------12--14----------------14-------------|
D|--14---------------------------------------|
A|-------------------------------------------|
E|-------------------------------------------|

e|--------------------------------------------------------------|
B|--------------------------------------------------------------|
G|----------11--14--11------14--11------14--11------14--11------|
D|--12--14--------------12----------12----------12----------12--|
A|--------------------------------------------------------------|
E|--------------------------------------------------------------|

e|-----------------------------------------------|
B|--------------12--12--12--12----12--14--15-----|
G|------12--14-----------------14----------------|
D|--14-------------------------------------------|
A|-----------------------------------------------|
E|-----------------------------------------------|

Gtr 1
e|------------------------------------------|
B|------------------------------------------|
G|----------11--14--11------14--11----------|
D|--12--14--------------12----------12--14--|
A|------------------------------------------|
E|------------------------------------------|

             Gtr 2 - Play this when you play the last 12th fret note (D)
the 14th (E)
                e|-----------------|
                B|-----------------|
                G|-----------------|
                D|---------0-h-2---|
                A|--0-h-2----------|
                E|-----------------|

Gtr 1
e|-------------------------------------------|
B|-------------12--12--12--12----12--14--15--|
G|------12--14----------------14-------------|
D|--14---------------------------------------|
A|-------------------------------------------|
E|-------------------------------------------|

e|--------------------------------------------------------------|
B|--------------------------------------------------------------|
G|----------11--14--11------14--11------14--11------14--11------|
D|--12--14--------------12----------12----------12----------12--|
A|--------------------------------------------------------------|
E|--------------------------------------------------------------|

e|-----------------------------------------------|
B|--------------12--12--12--12----12--14--15-----|
G|------12--14-----------------14----------------|
D|--14-------------------------------------------|
A|-----------------------------------------------|
E|-----------------------------------------------|

Gtr 1
e|------------------------------------------|
B|------------------------------------------|
G|----------11--14--11------14--11----------|
D|--12--14--------------12----------12--14--|
A|------------------------------------------|
E|------------------------------------------|


Verse 1

G
High on the mountain stands a boat
Bm
But are they gods or real folk?
G
We can't see the fire but we smell the smoke
Bm
Who'll take the plough? Who'll be the yoke?
G
Night after night I don't believe
Bm
We are the ones you won't deceive
G
Not a thing will you achieve
Bm
'cos we belong and we won't leave

Chorus:

G
Trouble, trouble
Bm
I try to chase trouble but it's chasing me
G
Trouble, trouble
Bm
Trouble with a capital T

Gtr 1
e|-------------------------------------------|
B|-------------12--12--12--12----12--14--15--|
G|------12--14----------------14-------------|
D|--14---------------------------------------|
A|-------------------------------------------|
E|-------------------------------------------|

e|--------------------------------------------------------------|
B|--------------------------------------------------------------|
G|----------11--14--11------14--11------14--11------14--11------|
D|--12--14--------------12----------12----------12----------12--|
A|--------------------------------------------------------------|
E|--------------------------------------------------------------|

Gtr 1
e|-----------------------------------------------|
B|--------------12--12--12--12----12--14--15-----|
G|------12--14-----------------14----------------|
D|--14-------------------------------------------|
A|-----------------------------------------------|
E|-----------------------------------------------|

e|------------------------------------------|
B|------------------------------------------|
G|----------11--14--11------14--11----------|
D|--12--14--------------12----------12--14--|
A|------------------------------------------|
E|------------------------------------------|


Verse 2

G
Lay down your silver and your gold
Bm
I'm a man who can't be sold
G
And, even when my heart grows cold
Bm
I'll curse your evil stranglehold
G
The waves are running much too high
Bm
It's got so dark can't see the sky
G
But a change is coming by and by
Bm
A time to laugh, a time to die

Chorus

G
Trouble, trouble
Bm
I try to chase trouble but it's chasing me
G
Trouble, trouble
Bm
Trouble with a capital T

Gtr 1
e|-------------------------------------------|
B|-------------12--12--12--12----12--14--15--|
G|------12--14----------------14-------------|
D|--14---------------------------------------|
A|-------------------------------------------|
E|-------------------------------------------|

e|--------------------------------------------------------------|
B|--------------------------------------------------------------|
G|----------11--14--11------14--11------14--11------14--11------|
D|--12--14--------------12----------12----------12----------12--|
A|--------------------------------------------------------------|
E|--------------------------------------------------------------|

Gtr 1
e|-----------------------------------------------|
B|--------------12--12--12--12----12--14--15-----|
G|------12--14-----------------14----------------|
D|--14-------------------------------------------|
A|-----------------------------------------------|
E|-----------------------------------------------|

e|------------------------------------------|
B|------------------------------------------|
G|----------11--14--11------14--11----------|
D|--12--14--------------12----------12--14--|
A|------------------------------------------|
E|------------------------------------------|

Bridge

Gtr 1
e|--/12--10--9---10--9---7--5--5--|
B|--/14--12--10--12--10--9--7--7--|
G|--------------------------------|
D|--------------------------------|
A|--------------------------------|
E|--------------------------------|

e|-----------------------|
B|------------------5----|
G|--------2--4--/6-------|
D|--2--4--------------4--|
A|-----------------------|
E|-----------------------|

e|--------------------|
B|--------------------|
G|--------------------|
D|--2--0-----2--0-----|
A|--------2--------2--|
E|--------------------|

e|--/12--10--9---10--9---7--5--5--|
B|--/14--12--10--12--10--9--7--7--|
G|--------------------------------|
D|--------------------------------|
A|--------------------------------|
E|--------------------------------|

e|-------------------------------|
B|------------------5--7--9--10--|
G|--------2--4--/6---------------|
D|--2--4-------------------------|
A|-------------------------------|
E|-------------------------------|

Gtr 2 - Last five notes of both measures to be played in Unison.
e|-------------------------------|
B|-------------------------------|
G|------------------9--11--13--14|
D|--------------11---------------|
A|-------------------------------|
E|-------------------------------|

Main Riff

Gtr 1
e|-------------------------------------------|
B|-------------12--12--12--12----12--14--15--|
G|------12--14----------------14-------------|
D|--14---------------------------------------|
A|-------------------------------------------|
E|-------------------------------------------|

e|--------------------------------------------------------------|
B|--------------------------------------------------------------|
G|----------11--14--11------14--11------14--11------14--11------|
D|--12--14--------------12----------12----------12----------12--|
A|--------------------------------------------------------------|
E|--------------------------------------------------------------|

e|-----------------------------------------------|
B|--------------12--12--12--12----12--14--15-----|
G|------12--14-----------------14----------------|
D|--14-------------------------------------------|
A|-----------------------------------------------|
E|-----------------------------------------------|

Gtr 1
e|------------------------------------------|
B|------------------------------------------|
G|----------11--14--11------14--11----------|
D|--12--14--------------12----------12--14--|
A|------------------------------------------|
E|------------------------------------------|

             Gtr 2 - Play this when you play the last 12th fret note (D)
the 14th (E)
                e|-----------------|
                B|-----------------|
                G|-----------------|
                D|---------0-h-2---|
                A|--0-h-2----------|
                E|-----------------|

Gtr 1
e|-------------------------------------------|
B|-------------12--12--12--12----12--14--15--|
G|------12--14----------------14-------------|
D|--14---------------------------------------|
A|-------------------------------------------|
E|-------------------------------------------|

e|--------------------------------------------------------------|
B|--------------------------------------------------------------|
G|----------11--14--11------14--11------14--11------14--11------|
D|--12--14--------------12----------12----------12----------12--|
A|--------------------------------------------------------------|
E|--------------------------------------------------------------|

e|-----------------------------------------------|
B|--------------12--12--12--12----12--14--15-----|
G|------12--14-----------------14----------------|
D|--14-------------------------------------------|
A|-----------------------------------------------|
E|-----------------------------------------------|

Gtr 1
e|------------------------------------------|
B|------------------------------------------|
G|----------11--14--11------14--11----------|
D|--12--14--------------12----------12--14--|
A|------------------------------------------|
E|------------------------------------------|

Verse 3

G
Been so long away from home
Bm
I almost made this place my own
G
Now it seems I'll soon be gone
Bm
Moving on and all alone
G
High on the mountain stands a boat
Bm
But are they gods or real folk?
G
We can't see the fire but we smell the smoke
Bm
Who'll take the plough? Who'll be the yoke?

Outro

G
Trouble, trouble
Bm
I try to chase trouble but it's chasing me
G
Trouble, trouble
Bm
Trouble with a capital T

G
Trouble, trouble
Bm
I try to chase trouble but it's chasing me
G
Trouble, trouble
Bm
Trouble with a capital T

Gtr 1
e|-------------------------------------------|
B|-------------12--12--12--12----12--14--15--|
G|------12--14----------------14-------------|
D|--14---------------------------------------|
A|-------------------------------------------|
E|-------------------------------------------|

e|--------------------------------------------------------------|
B|--------------------------------------------------------------|
G|----------11--14--11------14--11------14--11------14--11------|
D|--12--14--------------12----------12----------12----------12--|
A|--------------------------------------------------------------|
E|--------------------------------------------------------------|

Gtr 1
e|-----------------------------------------------|
B|--------------12--12--12--12----12--14--15-----|
G|------12--14-----------------14----------------|
D|--14-------------------------------------------|
A|-----------------------------------------------|
E|-----------------------------------------------|

e|------------------------------------------|
B|------------------------------------------|
G|----------11--14--11------14--11----------|
D|--12--14--------------12----------12--14--|
A|------------------------------------------|
E|------------------------------------------|

Not sure about the guitar solo as it sounds a bit dodgy against the studio version but
perfect with live versions. Also when he plays it live, he uses some bends at the start
the solo.

Enjoy :)
************************************

| /  slide up
| \  slide down
| h  hammer-on
| p  pull-off
| ~  vibrato
| +  harmonic
| x  Mute note
| b  Bend
| pb Pre-bend
| br Bend release
| pbr Pre-bend release
| brb Bend release bend

Other versions of Trouble With A Capital T

Alternative guitar chords and tabs for Trouble With A Capital T by Horslips

Find guitar tabs and chords

A B C D E F G H I J K L M N O P Q R S T U V W X Y Z #