GuitarTabsExplorer icon
GuitarTabsExplorer icon

Log in

Songbook

  • Log in to add and see bookmarks

Last visited songs

    No songs visited yet...

Trouble  With A Capital T by Horslips

Trouble With A Capital T tab by Horslips

Tabs

Chord diagramE minorEm
|-------------------------------------------------------------|
|------------------12--12--12--12--12--12------12--14--15-----|
|---------12--14---------------------------14-----------------|
|-----14------------------------------------------------------|
|-------------------------------------------------------------|
|-------------------------------------------------------------|

    Chord diagramD MajorD
|--------------------------------------------------------------|
|--------------------------------------------------------------|
|-------------11--14--11------14--11------14--11---------------|
|-----12--14--------------12----------12----------12--14-------|
|--------------------------------------------------------------|
|--------------------------------------------------------------|


Verse Chords: Em, G, D, Chord diagramB minorBm

[ Privacy | About us ]

Welcome to the guitar community

Why join and log in?
- Get songbook with favourite songs
- Get custom made front page
- Submit chords and tabs
- Submit guitar-cover videos
- Get a lot of thumbs up for your work

Songbook

Last visited songs

Site
Home
Search
Community
Submit chords
Submit video

Video

No video for this page. Check out how you can submit guitar-cover videos here

Search tabs and chords

Browse by artist

A B C D E F G H I J K L M N O P Q R S T U V W X Y Z #


Menu

Search

Video

Bookmark

Login