Log in

One click and you are in

Login with Facebook Login with Google

Why sign up and log in

Guitar Tabs Explorer
Hope Of The States tabs for Static in the cities

Static In The Cities tab by Hope Of The States

Hope Of The States tabs for Static in the cities

Guitar tabs

Title: Static in the cities
Found on: Enemies/friends single
Tab by: Neil Mace
E-mail: mr_mace@hotmail.com

anyone else love this band as much as i do ....anywho, heres that cool bit
heard halfway through static in the cities, repeat as appropriate.

e--------------10-10----------------------------------------
b--12----12-12-------12-12---12-12-------12-12--------------
g----------------------------------14-14--------------------
d-----------------------------------------------------------
a-----------------------------------------------------------
E-----------------------------------------------------------

e--------10-10----------------------------------------------
b--12-12-------12-12-10-10-8-8-7-7-8-8/12-------------------
g-----------------------------------------------------------
d-----------------------------------------------------------
a-----------------------------------------------------------
E-----------------------------------------------------------

Enjoy one and all, and all that crap!

_________________________________________________________________

Almost there ...

Sign in to get your own page with links to favourite songs and more. You are just one click away...

Login with Facebook Login with Google