Log in

One click and you are in

Login with Facebook Login with Google

Why sign up and log in

Guitar Tabs Explorer
Hop Along guitar tabs for Kids on the boardwalk

Guitar tabs

Intro/Verse
e|---------------------------------------------------------------------------|
B|---------------------------------------------------------------------------|
G|---------------------------------------------------------------------------|
D|-3--3------------3--3------------------------------------------------------|
A|-4--4------------4--4------------3--3-------------3--3---------------------|
E|-x--x------------x--x------------4--4-------------4--4---------------------|
|
e|---------------------------------------------------------------------------|
B|---------------------------------------------------------------------------|
G|---------------------------------------------------------------------------|
D|-3--3------------3--3------------------------------------------------------|
A|-4--4------------4--4------------3--3-------------3--3---------------------|
E|-x--x------------x--x------------4--4-------------4--4---------------------|

e|---------------------------------------------------------------------------|
B|---------------------------------------------------------------------------|
G|---------------------------------------------------------------------------|
D|-11-11-----------11-11-----------8--8-------------8--8---------------------|
A|-11-11-----------11-11-----------9--9-------------9--9---------------------|
E|-9--9------------9--9------------------------------------------------------|
|
e|---------------------------------------------------------------------------|
B|---------------------------------------------------------------------------|
G|-6--6------------6--6------------------------------------------------------|
D|-3--3------------3--3------------4--4-------------4--4---------------------|
A|-4--4------------4--4------------4--4-------------4--4---------------------|
E|-x--x------------x--x------------2--2-------------2--2---------------------|

e|--------------------------------------|
B|--------------------------------------|
G|--------------------------------------|
D|-7--7-------------7--7----------------|
A|-9--9-------------9--9----------------|
E|--------------------------------------|
|
e|--------------------------------------|
B|--------------------------------------|
G|--------------------------------------|
D|-4--4-------------4--4----------------|
A|-4--4-------------4--4----------------|
E|-2--2-------------2--2----------------|


Chorus
e|---------------------------------------------------------------------------|
B|---------------------------------------------------------------------------|
G|-6-6-6-6---6-6-6--x-x-x-x---x-x-x------------------------------------------|
D|-6-6-6-6---6-6-6--4-4-4-4---4-4-4--------------------------------------4---|
A|-4-4-4-4---4-4-4--4-4-4-4---4-4-4--4-4-4-4---4-4-4---4-4-4-4---4-4-4---4---|
E|-----------------------------------6-6-6-6---6-6-6---6-6-6-6---6-6-6---2---|
|
e|---------------------------------------------------------------------------|
B|---------------------------------------------------------------------------|
G|---------------------------------------------------------------------------|
D|-6-6-6-6---6-6-6-----------------------------------------------------------|
A|-4-4-4-4---4-4-4--4-4-4-4---4-4-4--8-8-8-8---8-8-8---8-8-8-8---8-8-8---4---|
E|-4-4-4-4---4-4-4--2-2-2-2---2-2-2--6-6-6-6---6-6-6---6-6-6-6---6-6-6---2---|


Verse
e|---------------------------------------------------------------------------|
B|---------------------------------------------------------------------------|
G|---------------------------------------------------------------------------|
D|-3--3------------3--3------------------------------------------------------|
A|-4--4------------4--4------------3--3-------------3--3---------------------|
E|-x--x------------x--x------------4--4-------------4--4---------------------|
|
e|---------------------------------------------------------------------------|
B|---------------------------------------------------------------------------|
G|---------------------------------------------------------------------------|
D|-3--3------------3--3------------------------------------------------------|
A|-4--4------------4--4------------3--3-------------3--3---------------------|
E|-x--x------------x--x------------4--4-------------4--4-------------4---6---|

e|---------------------------------------------------------------------------|
B|---------------------------------------------------------------------------|
G|---------------------------------------------------------------------------|
D|-11-11-----------11-11-----------8--8-------------8--8---------------------|
A|-11-11-----------11-11-----------9--9-------------9--9---------------------|
E|-9--9------------9--9------------------------------------------------------|
|
e|---------------------------------------------------------------------------|
B|---------------------------------------------------------------------------|
G|-6--6------------6--6------------------------------------------------------|
D|-3--3------------3--3------------4--4-------------4--4---------------------|
A|-4--4------------4--4------------4--4-------------4--4---------------------|
E|-x--x------------x--x------------2--2-------------2--2--------------2---4--|

e|--------------------------------------|
B|--------------------------------------|
G|--------------------------------------|
D|-7--7-------------7--7----------------|
A|-9--9-------------9--9----------------|
E|--------------------------------------|
|
e|--------------------------------------|
B|--------------------------------------|
G|--------------------------------------|
D|-4--4-------------4--4----------------|
A|-4--4-------------4--4----------------|
E|-2--2---------5---2--2--------5/------|


Chorus
e|---------------------------------------------------------------------------|
B|---------------------------------------------------------------------------|
G|-6-6-6-6---6-6-6--x-x-x-x---x-x-x------------------------------------------|
D|-6-6-6-6---6-6-6--4-4-4-4---4-4-4--------------------------------------4---|
A|-4-4-4-4---4-4-4--4-4-4-4---4-4-4--4-4-4-4---4-4-4---4-4-4-4---4-4-4---4---|
E|-----------------------------------6-6-6-6---6-6-6---6-6-6-6---6-6-6---2---|
|
e|---------------------------------------------------------------------------|
B|---------------------------------------------------------------------------|
G|---------------------------------------------------------------------------|
D|-6-6-6-6---6-6-6-----------------------------------------------------------|
A|-4-4-4-4---4-4-4--4-4-4-4---4-4-4--8-8-8-8---8-8-8---8-8-8-8---8-8-8---4---|
E|-4-4-4-4---4-4-4--2-2-2-2---2-2-2--6-6-6-6---6-6-6---6-6-6-6---6-6-6---2---|


Solo
e|---------------------------------------------------------------------------|
B|---------------------------------------------------------------------------|
G|---------------------------------------------------------------------------|
D|-3--3------------3--3------------------------------------------------------|
A|-4--4------------4--4------------3--3-------------3--3---------------------|
E|-x--x------------x--x------------4--4-------------4--4---------------------|
|
e|---------------------------------------------------------------------------|
B|---------------------------------------------------------------------------|
G|---------------------------------------------------------------------------|
D|----------x-x-x-x-x-x-x-x--------------10----------------------------------|
A|----------x-x-x-x-x-x-x-x-20\------------------8--\--4---/--6--------------|
E|----------x-x-x-x-x-x-x-x--------------------------------------------------|

e|---------------------------------------------------------------------------|
B|---------------------------------------------------------------------------|
G|---------------------------------------------------------------------------|
D|-11-11-----------11-11-----------8--8-------------8--8---------------------|
A|-11-11-----------11-11-----------9--9-------------9--9---------------------|
E|-9--9------------9--9------------------------------------------------------|
|
e|---------------------------------------------------------------------------|
B|---------------------------------------------------------------------------|
G|---------------------------------------------------------------------------|
D|---------------------------------------------------------------------------|
A|-6--/--8---/--11------------11--\--4---------------------------------------|
E|---------------------------------------------------------------------------|

e|--------------------------------------|
B|--------------------------------------|
G|--------------------------------------|
D|-7--7-------------7--7----------------|
A|-9--9-------------9--9----------------|
E|--------------------------------------|
|
e|----------13--13------13------13---13-|
B|-------14-------14--14--14--14--------|
G|-15-15------------15------15----------|
D|--------------------------------------|
A|--------------------------------------|
E|--------------------------------------|

e|---------------------------------------------------------------------------|
B|---------------------------------------------------------------------------|
G|-6-6-6-6---6-6-6--x-x-x-x---x-x-x------------------------------------------|
D|-6-6-6-6---6-6-6--4-4-4-4---4-4-4--------------------------------------4---|
A|-4-4-4-4---4-4-4--4-4-4-4---4-4-4--4-4-4-4---4-4-4---4-4-4-4---4-4-4---4---|
E|-----------------------------------6-6-6-6---6-6-6---6-6-6-6---6-6-6---2---|
|
e|-11-13-11-11-13-11-11-13-11-11-13------------------------------------------|
B|-----------------------------------13--\--11--\--9--\--7--\-6\-------------|
G|---------------------------------------------------------------------------|
D|---------------------------------------------------------------------------|
A|---------------------------------------------------------------------------|
E|---------------------------------------------------------------------------|


Verse
e|---------------------------------------------------------------------------|
B|---------------------------------------------------------------------------|
G|---------------------------------------------------------------------------|
D|-3--3------------3--3------------------------------------------------------|
A|-4--4------------4--4------------3--3-------------3--3---------------------|
E|-x--x------------x--x------------4--4-------------4--4---------------------|
|
e|---------------------------------------------------------------------------|
B|-------------------------6br-----------------------------------------------|
G|---------------------------------------------------------5br---------------|
D|-3--3------------3--3------------------------------------------------------|
A|-4--4---4---4----4--4---------4\-3--3-------------3--3---------------------|
E|-x--x------------x--x------------4--4----4---4----4--4---------4/----------|

e|---------------------------------------------------------------------------|
B|---------------------------------------------------------------------------|
G|---------------------------------------------------------------------------|
D|-11-11-----------11-11-----------8--8-------------8--8---------------------|
A|-11-11-----------11-11-----------9--9-------------9--9---------------------|
E|-9--9------------9--9------------------------------------------------------|
|
e|---------------------------------------------------------------------------|
B|-------------------------6br-----------------------------------------------|
G|-6--6------------6--6------------------------------------------------------|
D|-3--3------------3--3------------------------------------------------------|
A|-4--4---4---4----4--4--------4\--------------------------------------------|
E|-x--x------------x--x--------------------2---2-----------------------------|

e|---------------------------------------|
B|---------------------------------------|
G|---------------------------------------|
D|-7--7-------------7--7-----------------|
A|-9--9-------------9--9-----------------|
E|---------------------------------------|
|
e|---------------------------------------|
B|---------------------------------------|
G|---------------------------------------|
D|-4--4-------------4--4-----------------|
A|-4--4-------------4--4-----------------|
E|-2--2---------5---2--2--------5/-------|


Outro
"Honey i don't want to, be okay with never...."
e|-----------------------------------------------------------------------------------|
B|-------------11-------------9--------11-11-11--9----------------------9----9--9-9--|
G|----------------------------8--------10-10-10--8----------------------8----8--8-8--|
D|-----------------------------------------------------------------------------------|
A|-----------------------------------------------------------------------------------|
E|-----------------------------------------------------------------------------------|
|
e|-----------------------------------------------------------------------------------|
B|-----------------------------------------------------------------------------------|
G|-10-10-15p10-13~-10---10-10-15p10-13~-10---10-10-15p10-13~-10---10-10-15p10-13~-10-|
D|-----------------------------------------------------------------------------------|
A|-----------------------------------------------------------------------------------|
E|-----------------------------------------------------------------------------------|

e|-----------------------------------------------------------------------------------|
B|-11--------------11-------------------9--9-9--11-----------------------------------|
G|-10--------------10-------------------8--8-8--10-----------------------------------|
D|-----------------------------------------------------------------------------------|
A|-----------------------------------------------------------------------------------|
E|-----------------------------------------------------------------------------------|
|
e|-----------------------------------------------------------------------------------|
B|-----------------------------------------------------------------------------------|
G|-10-10-15p10-13~-10---10-10-15p10-13~-10---10-10-15p10-13~-10---10-10-15p10-13~-10-|
D|-----------------------------------------------------------------------------------|
A|-----------------------------------------------------------------------------------|
E|-----------------------------------------------------------------------------------|

(Piano Section)
  "I want truth and beauty...."
e|---------------------------------------------------------------------------|
B|-6-------------------------------------------------------------------------|
G|-6-------------------------------------------------------------------------|
D|---------------------------------------------------------------------------|
A|---------------------------------------------------------------------------|
E|---------------------------------------------------------------------------|
|
e|---------------------------------------------------------------------------|
B|---------------------------------------------------------------------------|
G|---------------------------------------------------------------------------|
D|---------------------------------------------------------------------------|
A|-4-4-4-4-4-4-4-4-4-4-4-4-4-4-4-4-------------------------------------------|
E|---------------------------------2-2-2-2-2-2-2-2-2-2-2-2-2-2-2-2-----------|

e|---------------------------------------------------------------------------|
B|---------------------------------------------------------------------------|
G|---------------------------------------------------------------------------|
D|---------------------------------------------------------------------------|
A|-4-4-4-4-4-4-4-4-4-4-4-4-4-4-4-4-------------------------------------------|
E|---------------------------------2-2-2-2-2-2-2-2-2-2-2-2-2-2-2-2-----------|
|
e|---------------------------------------------------------------------------|
B|---------------------------------------------------------------------------|
G|---------------------------------------------------------------------------|
D|---------------------------------------------------------------------------|
A|-4-4-4-4-4-4-4-4-4-4-4-4-4-4-4-4-------------------------------------------|
E|---------------------------------2-2-2-2-2-2-2-2-2-2-2-2-2-2-2-2-----------|

e|---------------------------------------------------------------------------|
B|-6-6-6-6--6-6-6-6-6-6-6--6-6-6---------------------------------------------|
G|-x-x-x-x--x-x-x-x-x-x-x--x-x-x---------------------------------------------|
D|-3-3-3-3--3-3-3-3-3-3-3--3-3-3-4-4-4-4--4-4-4-4-4-4-4--4-4-4---------------|
A|-4-4-4-4--4-4-4-4-4-4-4--4-4-4-4-4-4-4--4-4-4-4-4-4-4--4-4-4---------------|
E|-------------------------------2-2-2-2--2-2-2-2-2-2-2--2-2-2---------------|
|
e|-------------------------------2-2-2-2--2-2-2-2-2-2-2--2-2-2---------------|
B|-6-6-6-6--6-6-6-6-6-6-6--6-6-6-2-2-2-2--2-2-2-2-2-2-2--2-2-2---------------|
G|-6-6-6-6--6-6-6-6-6-6-6--6-6-6-3-3-3-3--3-3-3-3-3-3-3--3-3-3---------------|
D|-x-x-x-x--x-x-x-x-x-x-x--x-x-x-4-4-4-4--4-4-4-4-4-4-4--4-4-4---------------|
A|-4-4-4-4--4-4-4-4-4-4-4--4-4-4-4-4-4-4--4-4-4-4-4-4-4--4-4-4---------------|
E|-------------------------------2-2-2-2--2-2-2-2-2-2-2--2-2-2---------------|

e|---------------------------------------------------------------------------|
B|-6-6-6-6--6-6-6-6-6-6-6--6-6-6---------------------------------------------|
G|-x-x-x-x--x-x-x-x-x-x-x--x-x-x---------------------------------------------|
D|-3-3-3-3--3-3-3-3-3-3-3--3-3-3-4-4-4-4--4-4--------------------------------|
A|-4-4-4-4--4-4-4-4-4-4-4--4-4-4-4-4-4-4--4-4-----4~-------------------------|
E|-------------------------------2-2-2-2--2-2-----6~-------------------------|
|
e|-------------------------------2-2-2-2--2-2--------------------------------|
B|-6-6-6-6--6-6-6-6-6-6-6--6-6-6-2-2-2-2--2-2--------------------------------|
G|-6-6-6-6--6-6-6-6-6-6-6--6-6-6-3-3-3-3--3-3--------------------------------|
D|-x-x-x-x--x-x-x-x-x-x-x--x-x-x-4-4-4-4--4-4-----6~-------------------------|
A|-4-4-4-4--4-4-4-4-4-4-4--4-4-4-4-4-4-4--4-4--------------------------------|
E|-------------------------------2-2-2-2--2-2--------------------------------|


************************************

| x   Dead note
| h   Hammer-on
| p   Pull-off
| b   Bend
| br  Bend release
| /   Slide up
| \   Slide down
| ~   Vibrato

************************************

Almost there ...

Sign in to get your own page with links to favourite songs and more. You are just one click away...

Login with Facebook Login with Google