Log in

One click and you are in

Login with Facebook Login with Google

Why sign up and log in

Guitar Tabs Explorer
Hop Along guitar tabs for Fox in motion

Guitar tabs

Tuning: Standard (E A D G B E)

Difficulty: Novice


Verse:
e|---------------------------------------------------------------------------|
B|---------------------------------------------------------------------------|
G|--9-x-x-9--x-x-9--x-10-x-x-10-x-x-10-x-7-x-x-7-x-x-7-x-7-x-x-7-x-x-7-x-----|  x4
D|-10-x-x-10-x-x-10-x-12-x-x-12-x-x-12-x-8-x-x-8-x-x-8-x-8-x-x-8-x-x-8-x-----|
A|---------------------------------------------------------------------------|
E|---------------------------------------------------------------------------|

"The youngest but that..."

e|---------------------------------------------------------------------------|
B|---------------------------------------------------------------------------|
G|------------7------------10---10---10--------------------------------------|
D|-------------------------12---12---12--------------------------------------|
A|--5------------------------------------------------------------------------|
E|---------------------------------------------------------------------------|

"No I wasn't changed..."


Chorus:
e|---------------------------------------------------------------------------|
B|---------------------------------------------------------------------------|
G|---------------------------------------------------------------------------|
D|---------------------------------------------------------------------------|
A|---------5---5-------------------------------------------------------------|
E|--8--8-----------6----6----------------------------------------------------|

"When we saw, the fox running"

e|---------------------------------------------------------------------------|
B|---------------------------------------------------------------------------|
G|---------------------------------------------------------------------------|
D|---10----8----5-----10-----------------------------------------------------|
A|---10----8----5-----10-----------------------------------------------------|
E|---8-----6----3-----8-----------------------------6------------------------|

"Cousin take me home"

Verse: again

Hook / new chorus :

e|--3---5---5---1------------------------------------------------------------|
B|--3---6---6---1------------------------------------------------------------|
G|--4---7---7---2------------------------------------------------------------|
D|--5---7---7---3------------------------------------------------------------|
A|--5---5---5---3------------------------------------------------------------|
E|--3-----------1------------------------------------------------------------|

"How can I explain it, having been seen, what would that mean"


Outro:
e|---------------------------------------------------------------------------|
B|---------------------------------------------------------------------------|
G|--9-x-x-9--x-x-9--x-10-x-x-10-x-x-10-x-7-x-x-7-x-x-7-x-7-x-x-7-x-x-7-x-----|  x4
D|-10-x-x-10-x-x-10-x-12-x-x-12-x-x-12-x-8-x-x-8-x-x-8-x-8-x-x-8-x-x-8-x-----|
A|---------------------------------------------------------------------------|
E|---------------------------------------------------------------------------|

************************************

| x  Dead note

************************************

Almost there ...

Sign in to get your own page with links to favourite songs and more. You are just one click away...

Login with Facebook Login with Google