Log in

One click and you are in

Login with Facebook Login with Google

Why sign up and log in

Guitar Tabs Explorer
Hootie & The Blowfish bass tabs for Rollin

Bass tabs

Tuning: Standard (E A D G)



Intro:
Bass enters after 4 bars.
G|------|-----------------|------|-----------------|
D|------|-----------------|------|----11-----9-----|
A|------|-----------9-11--|------|------------11\--|
E|-7----|---9/11----------|-7----|-----------------|
     1 + 2 + 3 + 4 +     1 + 2 + 3 + 4
G|-------|-----------------|-----------------|-----------------|
D|-------|-----------------|-----------------|-----------------|
A|-7-----|--9/11-----9h11\-|--------------(4)|-4--(4)6--(6)4---|
E|-------|-----------------|-7---------------|-----------------|
      1 + 2 + 3 + 4 +  1 + 2 + 3 + 4 +  1 + 2 + 3 + 4


Verse:
G|-------|-----------------|--------|-----------------|
D|-------|-----------------|--------|-----------------|
A|-------|-----------9-----|--------|-----------------|
E|-7-----|---9/11------11--|-7-----\|--(0)0-------0---|
      1 + 2 + 3 + 4 +      1 + 2 + 3 + 4


G|-----------------|-----------------|-----------------|-----------------|
D|-----------------|-----------------|-----------------|-----------------|
A|-----------------|-------------9---|-----------------|/11----9---------|
E|/7---7-7-7-------|-(10)-10h11------|-7---7-7-7-------|----11---------11|
  1 + 2 + 3 + 4 +  1 + 2 + 3 + 4 +  1 + 2 + 3 + 4 +  1 + 2 + 3 + 4


G|-------|-----------------|-------|-----------------|
D|-------|-----------------|-------|-----------------|
A|-------|-----------------|-------|-----------------|
E|-0-----|-----0-------0---|-7-----|--(7)7-------7---|
      1 + 2 + 3 + 4 +      1 + 2 + 3 + 4 +


Chorus:
G|-------|-------|-----------------|------------------|
D|-------|-------|-----------------|------------------|
A|-------|-------|-----------------|------9--11-9-----|
E|-5-----|-0-----|-7---7-7-7----(7)|9/11----------11--|
          1 + 2 + 3 + 4 +  1 + 2 + 3 + 4 +


G|-----------------|------------------|---------------|--------------------|
D|--------------(9)|9s11--9--11-9-----|---------------|--------------------|
A|-----------------|-------------11\--|-7-7-7-7-7-----|9/11-11-9---11--9\--|
E|-7-7-7-7-7-------|------------------|---------------|----------11--------|
  1 + 2 + 3 + 4 +  1 + 2 + 3 + 4 +  1 + 2 + 3 + 4  1 + 2 + 3 + 4 +


G|-----------------|-----------------|-----------------|-----------------|
D|-----------------|-----------------|-----------------|-----------------|
A|-----------------|-----9--11-9-----|-----------------|-----9--11-9-----|
E|-7-7-7-7-7-------|9/11---------11--|-7---7-7-7-------|9/11---------11--|
  1 + 2 + 3 + 4 +  1 + 2 + 3 + 4 +  1 + 2 + 3 + 4 +  1 + 2 + 3 + 4 +


G|-----------------|-----------------|---------------|------------------|
D|-----------------|9/11--9----11----|---------------|------------------|
A|-----------------|--------------9--|-7---7-7-7-----|9/11-11-9-9/11--9-|
E|-7---7-7-7-------|-----------------|---------------|------------------|
  1 + 2 + 3 + 4 +  1 + 2 + 3 + 4 + 1 + 2 + 3 + 4 +  1 + 2 + 3 + 4 +

         6 bar rest GUITAR SOLO 1
G|--------|-------|----------|----------------|------------------|
D|--------|-------|----------|----------------|------------------|
A|--------|-------|----------|----------------|--------------9-11|
E|*7------|-\-----|----------|-7---7-7-7------|9/11--9--11-9-----|
 *hold four beats then slide  1 + 2 + 3 + 4 +  1 + 2 + 3 + 4 +


G|---------------|-------------------|---------------|--------------|
D|---------------|9/11---9-----------|---------------|--------------|
A|---------------|------------11-----|-7-7-7-7-7-----|-7---7-7/9----|
E|-7---7-7-7-----|--------------11---|---------------|---9---------9|
  1 + 2 + 3 + 4 +  1 + 2 + 3 + 4 +  1 + 2 + 3 + 4  1 + 2 + 3 + 4

        chillin' part begins:
G|--------------|-----------------|-------------|-----------------|
D|--------------|-----------------|-------------|-----------------|
A|--------------|-9-------9-11-9\-|-------------|9/11--9------11\-|
E|-7-7-7-7-7----|---9/11----------|-7---7-7-7---|-----------------|
  1 + 2 + 3 + 4 1 + 2 + 3 + 4 + 1 + 2 + 3 + 4 1 + 2 + 3 + 4


G|--------------|-----------------|--------------|----------------|-------|
D|--------------|-----------------|--------------|-----------9/11-|-9-----|
A|-----------(9)|9/11--9------11\-|--------------|9/11--9---------|-------|
E|-7---7---7----|-----------------|-7---7-7-7----|----------------|-------|
  1 + 2 + 3 + 4  1 + 2 + 3 + 4  1 + 2 + 3 + 4  1 + 2 + 3 + 4


Chorus:
G|------------------|---------------|----------------|-----------------|
D|------------------|---------------|----------------|-----------------|
A|-9/11---9------11\|---------------|----------------|-----------------|
E|------------------|-0-------------|---------------0|/7-7-7-7-7----(9)|
   1 + 2 + 3 + 4  1 + 2 + 3 + 4 1 + 2 + 3 + 4 + 1 + 2 + 3 + 4 +


G|-----------------|---------------|----------------|--------------|
D|-----------------|---------------|9/11--9--11-9---|--------------|
A|------9--11-9----|---------------|-------------11-|-7---7-7-7----|
E|9/11----------11-|-7---7-7-7-----|----------------|--------------|
  1 + 2 + 3 + 4  1 + 2 + 3 + 4  1 + 2 + 3 + 4 + 1 + 2 + 3 + 4


G|--------------------|---------------|----------------|-----------------|
D|--------------------|---------------|----------------|-----------------|
A|-9/11-11-9-9h11-11-9|---------------|------9--11-9---|-----------------|
E|--------------------|-7-7-7-7-7-----|9/11---------11-|-7---7-7-7----(9)|
   1 + 2 + 3 + 4 1 + 2 + 3 + 4  1 + 2 + 3 + 4 + 1 + 2 + 3 + 4 +


G|-----------------|---------------|----------------|--------------|
D|-----------------|---------------|9/11--9--11-9---|--------------|
A|------9--11-9----|---------------|-------------11-|-7-7-7-7-7----|
E|9/11----------11-|-7---7-7-7-----|----------------|--------------|
  1 + 2 + 3 + 4  1 + 2 + 3 + 4  1 + 2 + 3 + 4 + 1 + 2 + 3 + 4

                           6 bar rest
G|---------------------|--------------|--------------||-----------|
D|---------------------|--------------|--------------||-----------|
A|-9/11-11-9---11-9----|--------------|--------------||-----------|
E|0----------0------11\|*7------------|-\------------||----------0|
   1 + 2 + 3 + 4  1 + 2 + 3 + 4 1 + 2 + 3 + 4

 GUITAR SOLO 2
G|----------------|----------------|----------------|-----------------|
D|----------------|----------------|----------------|-9h11-11-9~------|
A|----------------| 9/11--9----11\-|----------------|9-----------11--9|
E|-0-0-7---7-7-7--|0----0----------|-0---7-7-7-7-7--|-----------------|
  1 + 2 + 3 + 4 +  1 + 2 + 3 + 4 1 + 2 + 3 + 4 + 1 + 2 + 3 + 4

             x = 8th note rest
G|----------------|-----------------|----------------|----------------|
D|----------------|-----------------|----------------|----------------|
A|----------------| 9/11--9-x-11-9--|----------------|-----9-------9\-|
E|-7-7-7-7-7-7----|---------------11|-7---7-7-7-----9|/11-------------|
  1 + 2 + 3 + 4 +  1 + 2 + 3 + 4 1 + 2 + 3 + 4 + 1 + 2 + 3 + 4


G|----------------|-----------------|----------------|----------------|
D|----------------|-----------------|----------------|----------------|
A|----------------| 9/11--9------11\|----------------|9/11--9---11----|
E|-7---7-7-7--(7)-|-----------------|-7---7-7-7--(7)-|----0---0-------|
  1 + 2 + 3 + 4 +  1 + 2 + 3 + 4  1 + 2 + 3 + 4 +  1 + 2 + 3 + 4


G|----------------|-----------------|----------------|--------------------|
D|----------------|-----------------|----------------|--------------------|
A|----------------| 9/11--9--9/11---|----------------|------9---11-9------|
E|-7---7----------|-----11----------|-7---7-7-7------|9/11-----------11-9-|
  1 + 2 + 3 + 4 +  1 + 2 + 3 + 4 1 + 2 + 3 + 4 +  1 + 2 + 3 + 4 +


Chorus:
G|---------------|----------------|--------------|-----------------|
D|---------------|----------------|--------------|9/11---9---------|
A|---------------|------9--11-9---|--------------|-------------11-9|
E|-7---7-7-7-----|9/11---------11-|-7---7-7-7----|-----------------|
  1 + 2 + 3 + 4  1 + 2 + 3 + 4 + 1 + 2 + 3 + 4  1 + 2 + 3 + 4


G|---------------|------------------|--------------|-----------------|
D|---------------|------------------|--------------|-----------------|
A|-0-7-7-7-7-----|9/11-11-9---11--9-|--------------|------9---9-11-9-|
E|---------------|----------0-------|-7---7-7-7----|9/11-------------|
  1 + 2 + 3 + 4  1 + 2 + 3 + 4  1 + 2 + 3 + 4  1 + 2 + 3 + 4


G|---------------|----------------|--------------|-----------------|
D|---------------|----------------|--------------|9/11---9---------|
A|---------------|------9--11-9---|--------------|----------11-9---|
E|-7---7-7-7-----|9/11---------11\|-7-7-7-7-7----|---------------11|
 1 + 2 + 3 + 4  1 + 2 + 3 + 4 + 1 + 2 + 3 + 4  1 + 2 + 3 + 4


G|---------------|------------------|--------------|---------------|
D|---------------|------------------|--------------|---------------|
A|---7-7-7-7-----|9/11-11-9--/11--9\|--------------|---------------|
E|-0-------------|------------------|*7------------|-\-------------|
  1 + 2 + 3 + 4  1 + 2 + 3 + 4  1 + 2 + 3 + 4  1 + 2 + 3 + 4


Outro:
G|-----------------|------------------|------------------|
D|-----------------|------------------|------------------|
A|-----------------|------------------|9/11-11-9---9h11--|
E|-0-(0)-0---------|--7-----7---------|------------------|
  1 + 2 + 3 + 4  1 + 2 + 3 + 4   1 + 2 + 3 + 4


G|-----------------|----------------|--------------|------------------|
D|-----------------|----------------|--------------|------------------|
A|-----------------|------9--11-9---|--------------|-------9--11-9----|
E|-7---7-7-7----(7)|9/11---------11\|-7-7-7-7-7----|9/11-----------11\|
  1 + 2 + 3 + 4 +  1 + 2 + 3 + 4 + 1 + 2 + 3 + 4  1 + 2 + 3 + 4


G|--------------|
D|--------------|
A|--------------|
E|-7\-----------|
  1 + 2 + 3 + 4


************************************

| \  Slide down
| /  Slide up
| (n) Ghost note
| h  Hammer-on
| *  Natural harmonic
| ~  Vibrato
| x  Dead note


************************************

Almost there ...

Sign in to get your own page with links to favourite songs and more. You are just one click away...

Login with Facebook Login with Google