Log in

One click and you are in

Login with Facebook Login with Google

Why sign up and log in

Guitar Tabs Explorer
Hootie And The Blowfish tabs for Let her cry

Guitar tabs

@SONG: * LET HER CRY
(tabbed by randell@heinous.music.uiowa.edu)

A chord diagramG+G               A chord diagramD MajorD
 She sits alone by ....
A chord diagramC majorC (or Csus9)                                 A chord diagramG+G
 Trying to find a thought ....

She never let's me ....

            A chord diagramC majorC
    Let her ...
           A chord diagramG+G
    If the tears fall ...
            A chord diagramC majorC
    Let her ....
          A chord diagramE minorEm    A chord diagramG+G       A chord diagramD MajorD
    If it eases ...
            A chord diagramC majorC
    Let her ...
            A chord diagramG+G
    Let her walk ...
               A chord diagramD MajorD
    And if the sun ...
            A chord diagramC majorC           A chord diagramG+G
    Let her be, let ...

This morning I woke up ....

(chorus)

(solo - 8 bars over verse)

(chorus)

Last night I tried to ....

(chorus) x 2
...........

first solo (the easy one)
hold bridge on 7
|---------------------------------------------------------------|
|------------------------------------------8-8-8-8--------------|
|-------------------------7-7h9p7------------------7h9p7-77h9p7-|
|---------------------7-9---------9-7-9-7-7-7-7-7-7-------------|
|-10-7-10-10--10-7-10-------------------------------------------|
|---------------------------------------------------------------|

|-----------------------------------------------------|
|-----------------------------------------------------|
|------------------------------7-7h9p7----------------|
|-9-7-9-7------------------7-9---------9-7------------|
|---------10-7-10--10-7-10-----------------10---------|
|-----------------------------------------------------|

|--10-10-10-10-------10--10--10--10--------7-7-7-7---------|
|-8--8--8--8--8--------10--10--10--10-------8-8-8-8--------|
|--------------77h9p7----------------7h9p7---------7h9p7---|
|----------------------------------------------------------|
|----------------------------------------------------------|
|----------------------------------------------------------|

|------------------------------------| guitar 1 completes this
|------------------------------------| riff but i cut it here
|-7h9p7--------------------7-7h9p7-0-| & played into the 2nd
|------9-7-9-7---------7-9-----------| part so 1 guitar can
|--------------10-7-10---------------| play the solo
|------------------------------------|

|--10----12----10----12----10-------|
|----12----12----12----12----12--12-|
|------12----12----12----12----12---| x3
|-----------------------------------|
|-----------------------------------|
|-----------------------------------|

|----------------------10------------| i gave this part my
|-------------8---8-10bbb10r-8h10p8--| best shot & it gave
|-----7---7-9---9--------------------| me a headache...
|-7-9---9----------------------------|
|------------------------------------|
|------------------------------------|


licks in the end of the song:
|---------------------------------------------10-x4-|
|-10br10p8---8--------------------8-8h10p8~-8-8-----|
|----------9-------7---7h9-7~-7h9-------------------|
|--------------7h9---9------------------------------|
|---------------------------------------------------|
|---------------------------------------------------|

let her...                   let her...
|------------------------------------------------|
|---------8-10b101010rp8-------------------------|
|----7-7h9-7------------9-----------------8-10~--|
|-7h9-9------------------10---------9~--9--------|
|------------------------------------------------|
|------------------------------------------------|

Other versions of Let Her Cry

Let her cryChords
Let her cry (Ver. 2)Tabs
Let her cry acousticTabs

Almost there ...

Sign in to get your own page with links to favourite songs and more. You are just one click away...

Login with Facebook Login with Google