Log in

One click and you are in

Login with Facebook Login with Google

Why sign up and log in

Guitar Tabs Explorer
Hootie And The Blowfish bass tabs for Let her cry

Bass tabs

Let Her Cry.btab
Hootie And The Blowfish
TablEdited by Poppamies

Tuning : E A D G 	Time Signature: 4/4

 tempo 70|    |    |    |    |    |    |
|--------------------------------|--------------------------------|
|-------------------seven bar intro without bass------------------|
|--------------------------------|--------------------------------|
|--------------------------------|--------------------------------|
 |    |    |    |    |    |    |    |
|--------------------------------|--------------------------------|
|--------------------------------|--------------------5-----------|
|--------------------------------|----------------------------5---|
|--------------------------------|--------------------------------|

 |    |    |    |    |    |    |    |
|--------------------------------|--------------------------------|
|--------------------------------|--------------4-------5-----4---|
|--------------------------------|5-----------5-------5-----5---5-|
|3-------------------3-------3---|--------------------------------|

 |    |    |    |    |    |    |    |
|--------------------------------|--------------------------------|
|--------------5-----4-----4-5---|--------------------------3---4-|
|3-----------------3-------------|--------------------3-5---------|
|--------------------------------|3-------------3-3-5---------5---|

 |    |    |    |    |    |    |    |
|--------------------------------|--------------------------------|
|5-------------5-----------------|--------------4-------5-----4---|
|----------------5---------------|5-----------------5-------5---5-|
|--------------------3-------3---|--------------------------------|

 |    |    |    |    |    |    |    |
|--------------------------------|--------------------------------|
|--------------5-----4-----4-5---|--------------5-----------------|
|3-----------------3-----3-------|--------------------3-5-------5-|
|--------------------------------|3---------------3-5-------------|

 |    |    |    |    |    |    |    |
|--------------------------------|--------------------------------|
|--------------------------------|--------------------4-----4-5---|
|3-------------------3-------5---|--------------------------------|
|--------------------------------|3-----------3-3---3-------------|

 |    |    |    |    |    |    |    |
|--------------------------------|--------------------------------|
|--------------------------------|2-----5-------------------------|
|3-------------------3-------3---|------------5-----5-5---7-5---7-|
|--------------------------------|----------3---------------------|

 |    |    |    |    |    |    |    |
|--------------------------------|--------------------------------|
|--------------------------------|---------  and so on  --------|
|3-------------------3-------5---|--------------------------------|
|--------------------------------|--------------------------------|

http://www.geocities.com/jani_bjorklund/janis.html

Other versions of Let Her Cry

Let her cry (Ver. 2)Bass tabs

Almost there ...

Sign in to get your own page with links to favourite songs and more. You are just one click away...

Login with Facebook Login with Google