Log in

One click and you are in

Login with Facebook Login with Google

Why sign up and log in

Guitar Tabs Explorer
Hootie And The Blowfish tabs for Let her cry (Ver. 2)

Let Her Cry tab by Hootie And The Blowfish (Ver. 2)

Hootie And The Blowfish tabs for Let her cry (Ver. 2)

Guitar tabs with lyrics

Tuning: Standard
Tabbed By: Tony Goodwin (solos)
           Steve Vetter (lyrics and Chords)

(I tabbed out all the electric guitar parts and solos by ear except for the acoustic
and lyrics which i got from Steve Vetter's tab just to show you the song's outline with the
guitar)

Gtr.1 - Acoustic
Gtr.2 - Electric

-Intro-
A chord diagramC majorC                       A chord diagramG+G
She sits alone by a lamppost,
A chord diagramC majorC                                           A chord diagramG+G
Trying to find a thought that's escaped her mind.
A chord diagramG+G                                   A chord diagramD MajorD
She says there's the one I love the most,
A chord diagramC majorC                    A chord diagramG+G
His type's not far behind.

-Verse-                         _
[         Electric Chords       ]
[          (strum once)         ]
[      A chord diagramG+G     A chord diagramC majorC     A chord diagramD MajorD     A chord diagramE minorEm     ]
[   |--3--|--3--|--2--|--0--|   ]
[   |--3--|--1--|--3--|--0--|   ]
[   |--0--|--0—-|--2--|--0--|   ]
[   |--0--|--2--|--0--|--2--|   ]
[   |--x--|--3--|--x--|--2--|   ]
[   |--3--|--x--|--x--|--0--|   ]
[                               ]

A chord diagramG+G (Gtr.2 A chord diagramG+G)
She never lets me in,
A chord diagramD MajorD (Gtr.2 A chord diagramD MajorD)
Only tells me where she's been,
A chord diagramC majorC (Gtr.2 A chord diagramC majorC)                A chord diagramG+G (Gtr.2 A chord diagramG+G)
When she's had too much to drink.
A chord diagramG+G (Gtr.2 A chord diagramG+G)
I say that I don't care,
       A chord diagramD MajorD (Gtr.2 A chord diagramD MajorD)
I just run my hands through her dark hair.
A chord diagramC majorC (Gtr.2 A chord diagramC majorC)                                A chord diagramG+G (Gtr.2 A chord diagramG+G)
Then I pray to God, "You gotta help me fly away". (And just,)

-Chorus-
 Gtr.2 Fill
|-----7-----7-----7------|
|-------8-----8-----8----|
|---------0-----0-----0--|
|--0---------------------|
|------------------------|
|------------------------|

        A chord diagramC majorC (Fill)    A chord diagramG+G (Gtr.2 A chord diagramG+G)
Let her cry, if the tears fall down like rain.
        A chord diagramC majorC (Fill)    A chord diagramE minorEm (Gtr.2 A chord diagramE minorEm) A chord diagramD MajorD (Gtr.2 A chord diagramD MajorD)
Let her sing, if it eases all her pain.
        A chord diagramC majorC (Fill)    A chord diagramG+G (Gtr.2 A chord diagramG+G)
Let her go, let her walk right out on me.
           A chord diagramD MajorD (Gtr.2 A chord diagramD MajorD)
And if the sun comes up tomorrow,
        A chord diagramC majorC (Gtr.2 A chord diagramC majorC) A chord diagramG+G
Let her be, let her be.

-Solo-
 Gtr.1 A chord diagramG+G                                 A chord diagramD MajorD                          A chord diagramC majorC
 Gtr.2
|-------------------------------------------|--------------------------|
|-------------------------------------------|---8-----8----------------|
|------------------------7-7h9p7------------|-----7-----7---7-7-7/9-7~-|
|--5---5~--5---5-7-9-7-9---------9-7-7/9-7~-|-5-----5-----5------------|
|----7-------7------------------------------|--------------------------|
|-------------------------------------------|--------------------------|
           * * * *
                      A chord diagramG+G
|------------------------|---------------------------|
|------------------------|---------------------------|
|-7/9p7------------------|-----------7-7h9p7---------|
|-------9-7-7/9p7-5---5~-|-5---5-7-9---------9-7-5~--|
|-------------------7----|---7-----------------------|
|------------------------|---------------------------|
                           * * * *

-Verse-
A chord diagramG+G (Gtr.2 A chord diagramG+G)
This morning I woke up alone,
A chord diagramD MajorD (Gtr.2 A chord diagramD MajorD)
Found a note standing by the phone,
A chord diagramC majorC (Gtr.2 A chord diagramC majorC)                        A chord diagramG+G (Gtr.2 A chord diagramG+G)
Saying, "Maybe, Maybe I'll be back someday".
A chord diagramG+G (Gtr.2 A chord diagramG+G)
I wanted to look for you.
           A chord diagramD MajorD (Gtr.2 A chord diagramD MajorD)
You walked in, I didn't know just what I should do.
      A chord diagramC majorC (Gtr.2 A chord diagramC majorC)                        A chord diagramG+G (Gtr.2 A chord diagramG+G)
So, I sat back down, had a beer and felt sorry for myself. (Saying,)

-Chorus-

-Solo-
|------------------------------------|---------------------------------------|
|----8-----8-----8-----8-------------|---10-----10-----10-----10-------------|
|--7---7-7---7-7---7-7---7-7h9p7---7-|-9----9-9----9-9----9-9----9-7h9p7---7-|
|--------------------------------9---|-----------------------------------9---|
|------------------------------------|---------------------------------------|
|------------------------------------|---------------------------------------|

|---------------------------------------------------------------|
|---------------------------------------------------------------|
|---7-----7-----7-----7---7h9p7---7---------------7-7h9p7-------|
|-9---9-9---9-9---9-9---9-------9---9-7-5---5-7-9---------9-7-5-|
|-----------------------------------------7---------------------|
|---------------------------------------------------------------|

|----10----12-------10-------12-------10-----------10----12-------10-------12-------10-------|
|-12----12----12-12----12-12----12-12----12-12--10----10----12-12----10-10----12-12----12-12-|
|--------------------------------------------------------------------------------------------|
|--------------------------------------------------------------------------------------------|
|--------------------------------------------------------------------------------------------|
|--------------------------------------------------------------------------------------------|

|---12-----10-------12-----10-------12-----10----------------------------------------------|
|-8----8-8----10-10----8-8----10-10----8-8----10-10-12-10-8-------8-10-10b-10b-8-------8~--|
|-----------------------------------------------------------9-7-9----------------9-7-9-----|
|------------------------------------------------------------------------------------------|
|------------------------------------------------------------------------------------------|
|------------------------------------------------------------------------------------------|
(the end goes right in to the electric part of the chorus)

-Chorus-

-Verse-
A chord diagramG+G (Gtr.2 A chord diagramG+G) A chord diagramD MajorD (Gtr.2 A chord diagramD MajorD) A chord diagramC majorC (Gtr.2 A chord diagramC majorC) A chord diagramG+G (Gtr.2 A chord diagramG+G)
___________________________________________________
[ Fig.1          Fig.2           Fig.3            ]
[|--------------|---------------|----------------|]
[|--10br8---8~--|---------------|-----8-8h10-8~--|]
[|--------9-----|-----7-7h9-7~--|-7/9------------|]
[|--------------|-7/9-----------|----------------|]
[|--------------|---------------|----------------|]
[|--------------|---------------|----------------|]
[                                                 ]

(Fig.1)
A chord diagramG+G
Last night I tried to leave.
(Fig.2)
A chord diagramD MajorD
Cried so much I could not believe,
(Fig.3)
A chord diagramC majorC                                         A chord diagramG+G
She was the same girl I fell in love with long ago.
(Fig.1)
A chord diagramG+G
She went in the back to get high.
(Fig.2)
A chord diagramD MajorD
I sat down on my couch and cried, yelling,
(Fig.3)
A chord diagramC majorC                        A chord diagramG+G
"Woman whoa, Lord, whoa, please help me. Won't you hold my hand"

-Chorus-
        A chord diagramC majorC (Fill)    A chord diagramG+G (Gtr.2 A chord diagramG+G)
Let her cry, if the tears fall down like rain.
        A chord diagramC majorC (Fill)    A chord diagramE minorEm (Gtr.2 A chord diagramE minorEm) A chord diagramD MajorD (Gtr.2 A chord diagramD MajorD)
Let her sing, if it eases all her pain.
        A chord diagramC majorC (Fill)    A chord diagramG+G (Gtr.2 A chord diagramG+G)
Let her go, let her walk right out on me.
           A chord diagramD MajorD (Gtr.2 A chord diagramD MajorD)
And if the sun comes up tomorrow,

 Gtr.2
|---------------------------------------------------|
|--------------------------8---8---8-10-10b-8---8~--|
|----------------7---7-7/9---9---9------------9-----|
|------5—--5-7/9---9--------------------------------|
|--5/7---7------------------------------------------|
|---------------------------------------------------|

        A chord diagramC majorC (Fill)    A chord diagramG+G (Gtr.2 A chord diagramG+G)
Let her cry, if the tears fall down like rain.
        A chord diagramC majorC (Fill)    A chord diagramE minorEm (Gtr.2 A chord diagramE minorEm) A chord diagramD MajorD (Gtr.2 A chord diagramD MajorD)
Let her sing, if it eases all her pain.
        A chord diagramC majorC (Fill)    A chord diagramG+G (Gtr.2 A chord diagramG+G)
Let her go, let her walk right out on me.
           A chord diagramD MajorD (Gtr.2 A chord diagramD MajorD)
And if the sun comes up tomorrow,
        A chord diagramC majorC (Gtr.2 A chord diagramC majorC) A chord diagramG+G
Let her be, let her be.

Other versions of Let Her Cry

Let her cryChords
Let her cryTabs
Let her cry acousticTabs

Almost there ...

Sign in to get your own page with links to favourite songs and more. You are just one click away...

Login with Facebook Login with Google