Log in

One click and you are in

Login with Facebook Login with Google

Why sign up and log in

Guitar Tabs Explorer
Hootie & The Blowfish bass tabs for Let her cry (Ver. 2)

Let Her Cry bass tab by Hootie & The Blowfish (Ver. 2)

Hootie & The Blowfish bass tabs for Let her cry (Ver. 2)

Bass tabs

Intro/VERSE:
G|----|--------7-------------------------------------------------|
D|----|--------0--4-0-5-0-4-0------5-0-4-0-4-5--------0-2-345----|
A|---5|-----------------------3---------------------2------------|
E|-3--|-3-33-3----------------------------------3-3--------------|

G|------------------------------------------------------|
D|-----5-0---0---4-0-5-0-4-0-----5-0-4-0-4-5------------|
A|---------------------------3--------------------------|
E|-3-------3----------------------------------3---~15/3-|

CHORUS
G|------------------------------------------|
D|------------------------------------------|
A|-3--3-3/5--------0-2-3--3-3----7--5-7p5---|
E|---3-3----3--333-------3-3-------3--------|
G|----------------------------------------------------------|
D|-------------0/5-0------------4-0-5-0-4-0----5-0-4-0-45---|
A|-3--3-3/5---------------0-2-5-------------3---------------|
E|---3-3----3-----------3-----------------------------------|

G|--------------------------------------------------------------|
D|---0/5-0------0---4-0-5-0-4-0-----5-0-4-0-4-5---------0-2-345-|
A|----------0-2-----------------3---------------------2---------|
E|-3-------3------------------------------------3--3-3----------|

Other fills:
This one can be used in the last measure of the verse as it leads into the chorus:
G|0/2-0-------|
D|-----2-0----|
A|---------2-0|
E|------------|

And this one during the first line of the chorus when the guitars move to an E chord
G|------------/-7-7--|
D|----5-4-0---/7-7---|
A|--7----------------|

Other versions of Let Her Cry

Let her cryBass tabs

Almost there ...

Sign in to get your own page with links to favourite songs and more. You are just one click away...

Login with Facebook Login with Google