Log in

One click and you are in

Login with Facebook Login with Google

Why sign up and log in

Guitar Tabs Explorer
Hootie And The Blowfish bass tabs for Ill go blind

I'll Go Blind bass tab by Hootie And The Blowfish

Hootie And The Blowfish bass tabs for Ill go blind

Bass tabs

Basstab by Jan Bjorklund, Finland;
jani_bjorklund@yahoo.se
You are welcome to request for basstabs!
Bienvenidos a pedirme transcripciones para el bajo!
Fingering and positions as suggested by TablEdit.

TablEdited by Jan Bjorklund for Emma

Tuning : E A D G 	Time Signature: 4/4

 |    |    |    |    |    |    |    |
|--------------------------------|--------------------------------|
|--------------------------------|--------------------------------|
|--------------------------------|--------------------------------|
|------------------------------3-|3-------------------------------|

 |    |    |    |    |    |    |    |
|--------------------------------|--------------------------------|
|--------------------------------|--------------------------------|
|--------3-----3-2-----2-3-3-3-3-|--------3-----3-2-----2-2h3-2h3-|
|3-----3-------------------------|3-----3-------------------------|

 |    |    |    |    |    |    |    |
|--------------------------------|--------------------------------|
|--------------------------------|--------------------------------|
|--------3-----3-2-----2-2h3-3---|--------3-----3-2-----2-2h3-3---|
|3-----3-------------------------|3-----3-------------------------|

 |    |    |    |    |    |    |    |
|--------------------------------|--------------------------------|
|--------------------------------|--------------------------------|
|--------3-----3-2-----2-3-3-3---|--------3-----3-2-----2-3-3-3-3-|
|3-----3-------------------------|3-----3-------------------------|

 |    |    |    |    |    |    |    |
|--------------------------------|--------------------------------|
|--------------------------------|--------------------------------|
|--------3-----3-2-----2-2h3-3-3-|--------3-----3-2-----2-3-3-3-3-|
|3-----3-------------------------|3-----3-------------------------|

 |    |    |    |    |    |    |    |
|--------------------------------|--------------------------------|
|--------------------------------|--------------------------------|
|--------3-----3-2-----2h3---3-3-|--------3-----3-2-----2-3-3-3-3-|
|3-----3-------------------------|3-----3-------------------------|

 |    |    |    |    |    |    |    |
|--------------------------------|--------------------------------|
|--------------------------------|--------------------------------|
|--------3-----3-2-----2-0-0-0-0-|3-------------------------------|
|3-----3-------------------------|--------------------------------|

 |    |    |    |    |    |    |    |
|--------------------------------|--------------------------------|
|--------------------------------|--------------------------------|
|3-------------------------------|--------3-----3-2-----2-3-3-3-3-|
|--------------------------------|3-----3-------------------------|

 |    |    |    |    |    |    |    |
|--------------------------------|--------------------------------|
|--------------------------------|--------------------------------|
|--------3-----3-2-----2-0---0---|--------3-----3-2-----2-3---3---|
|3-----3-------------------------|3-----3-------------------------|

 |    |    |    |    |    |    |    |
|--------------------------------|--------------------------------|
|--------------------------------|--------------------------------|
|--------3-----3-2-----2-2h3-3-3-|--------3-----3-2-----2-3-3-3-3-|
|3-----3-------------------------|3-----3-------------------------|

 |    |    |    |    |    |    |    |
|--------------------------------|--------------------------------|
|--------------------------------|--------3-----3-2-----2-3---3---|
|--------3-----3-2-----2---3-3---|3-----3-----------------------0-|
|3-----3-----------------5-----5-|--------------------------------|

 |    |    |    |    |    |    |    |
|--------------------------------|--------------------------------|
|--------3-----3-2-----2-3---3---|--------------------------------|
|3-----3-------------0-----------|--------3-----3-2-----2-3-3-3-3-|
|--------------------------------|3-----3-------------------------|

 |    |    |    |    |    |    |    |
|--------------------------------|--------------------------------|
|--------------------------------|--------------------------------|
|--------3-----3-2-----2-3-3-3-3-|--------3-----3-2-----2-3-3-3-3-|
|3-----3-------------------------|3-----3-------------------------|

 |    |    |    |    |    |    |    |
|--------------------------------|--------------------------------|
|--------------------------------|--------------------------------|
|--------3-----3-2-----2-3-3-3-3-|--------3-----3-2-----2-0--0--0-|
|3-----3-------------------------|3-----3-------------------------|

 |    |    |    |    |    |    |    |
|--------------------------------|--------------------------------|
|--------------------------------|--------------------------------|
|--------3-----3-2-----2-0-0-0-0-|--------3-----3-2-----2-0-0-0-0-|
|3-----3-------------------------|3-----3-------------------------|

 |    |    |    |    |    |    |    |
|--------------------------------|--------------------------------|
|--------------------------------|--------------------------------|
|3-------------------------------|3-------------------------------|
|--------------------------------|--------------------------------|

 |    |    |    |    |    |    |    |
|--------------------------------|--------------------------------|
|--------------------------------|--------------------------------|
|--------3-----3-2-----2-3-3-3-3-|--------3-----3-2-----2-0---0---|
|3-----3-------------------------|3-----3-------------------------|

 |    |    |    |    |    |    |    |
|--------------------------------|--------------------------------|
|--------------------------------|--------------------------------|
|--------3-----3-2-----2-3-3-3---|--------3-----3-2-----2-3-3-3-3-|
|3-----3-------------------------|3-----3-------------------------|

 |    |    |    |    |    |    |    |
|--------------------------------|--------------------------------|
|--------------------------------|--------------------------------|
|--------3-----3-2-----2-3-3-3---|--------3-----3-2-----2-3-3-3---|
|3-----3-------------------------|3-----3-------------------------|

 |    |    |    |    |    |    |    |
|--------------------------------|--------------------------------|
|-------------------------  the bass -------------------------|
|--------------------------------|--------------------------------|
|--------------------------------|--------------------------------|

 |    |    |    |    |    |    |    |
|--------------------------------|--------------------------------|
|-----------------------takes a coffe break-----------------------|
|--------------------------------|--------------------------------|
|--------------------------------|--------------------------------|

 |    |    |    |    |    |    |    |
|--------------------------------|--------------------------------|
|--------------------------------|--------------------------------|
|--------3-----3-2-----2-3-3-3---|--------3-----3-2-----2-0---0---|
|3-----3-------------------------|3-----3-------------------------|

 |    |    |    |    |    |    |    |
|--------------------------------|--------------------------------|
|--------------------------------|--------------------------------|
|--------3-----3-2-----2-3-3-3-3-|--------3-----3-2-----2-0--0--0-|
|3-----3-------------------------|3-----3-------------------------|

 |    |    |    |
|--------------------------------|
|--------------------------------|
|--------------------------------|
|3-------------------------------|

Almost there ...

Sign in to get your own page with links to favourite songs and more. You are just one click away...

Login with Facebook Login with Google