Log in

One click and you are in

Login with Facebook Login with Google

Why sign up and log in

Guitar Tabs Explorer
Hootie And The Blowfish bass tabs for I go blind

I Go Blind bass tab by Hootie And The Blowfish

Hootie And The Blowfish bass tabs for I go blind

Bass tabs

Tuning: Standard (E A D G)


G|-----------------------------|
D|-----------------------------|
A|-------3---3-2--2-3-3-3-3----|
E|-3---3--------------------3--|

G|-----------------------------|
D|-----------------------------|
A|----3---3-2---2-0-0-0-0------|
E|-3-----------------------3---|


“I think it’s that I feel...”
G|-----------------------------|
D|-----------------------------|
A|-----3--------3--------------|
E|--3---------3----------------|


(Then back to the original pattern)
G|-----------------------------|
D|-----------------------------|
A|-------3---3-2---2-3-3-3-3---|
E|-3---3---------------------3-|

G|-----------------------------|
D|-----------------------------|
A|------3---3-2---2-0-0-0-0----|
E|--3-----------------------3--|

Almost there ...

Sign in to get your own page with links to favourite songs and more. You are just one click away...

Login with Facebook Login with Google