Log in

One click and you are in

Login with Facebook Login with Google

Why sign up and log in

Guitar Tabs Explorer
Hootie And The Blowfish bass tabs for Hannah jane

Hannah Jane bass tab by Hootie And The Blowfish

Hootie And The Blowfish bass tabs for Hannah jane

Bass tabs with lyrics

ARTIST: Hootie and the BLowfish
SONG: "Hannah Jane"
Bass Tablature by Jim Boza (hairflip@aol.com)

This is my version of Hootie and the Blowfish's "Hannah Jane". I figured the
bass part to the song was complex enough to deserve tabbing out... anyway,
if you've heard the song before, you're probably pretty familiar as to how
exactly all this stuff fits together. That is: Intro, Verse, Chorus (with
"Linking" riff used to repeat the chorus long enough to get the "One step..."
stuff sang), and so on. As always, send any questions or stuff to
hairflip@aol.com.  Enjoy!

Intro/Chorus:

G-|-------------------|------------------|
D-|-------------------|------------------|
A-|-------------------|-------------75---|
E-|-3-3--0235--5---35-|-3-3--0235--6--75-|

G-|-------------------|-------------------45h-4-|
D-|-------------------|---------------2-5-------|
A-|-------------------|--222222223--------------|
E-|-3-3--0235--5---35-|-------------------------|


Verse:

G-|----------------|------------------|
D-|----------------|--------------575-|
A-|---------5---35-|-3-3--0235--57----|
E-|-3-3--023-------|------------------|

G-|----------------|----------------|
D-|----------------|----------------|
A-|---------5---35-|-3-3--0235--035-|
E-|-3-3--023-------|----------------|

G-|----------------|---------------|
D-|----------------|---------------|
A-|-7-7--575-5-035-|-7-7--575-5-05-|
E-|----------------|---------------|

G-|----------|----------|
D-|----------|----------|
A-|-33333333-|-55555555-|
E-|----------|----------|


Chorus "Linking" Riff:

G-|------------|----------|
D-|------------|------575-|
A-|--5-5---333-|-5-557----|
E-|------------|----------|

Almost there ...

Sign in to get your own page with links to favourite songs and more. You are just one click away...

Login with Facebook Login with Google