Log in

One click and you are in

Login with Facebook Login with Google

Why sign up and log in

Guitar Tabs Explorer
Hooker John Lee tabs for One bourbon one scotch2

One Bourbon One Scotch2 tab by Hooker John Lee

Hooker John Lee tabs for One bourbon one scotch2

Guitar tabs

I love this song, so I formatted it into standard tuning. Hope you
enjoy.

                One Bourbon, One Scotch, One Beer

                         by John Lee Hooker
Performance Notes:  Tuning is Standard  (EADGBE)
                    John doesn't use picks but plays with his
                    fingers and thumb.


----3--/3--------------------------------------------------------
----3--/3--------------------------------------------------------
------------------5(7)--5p3p0--3-----------0--0--3---------
----------------------------------0--3--0-----------------------
------------------------------------------------------------------
------------------------------------------------------------------

-8---8(9)p6--------6-------------------8(9)p6---------7----
---------------8--8--------------------------------8--8---------
---------------------------6/5--3--5--3------------------------
------------------------------------------------------------------
------------------------------------------------------------------
------------------------------------------------------------------

-6--3--------3-----------------------------3----3-------3---1/3--
-------6---------8--------5p3-------------------3-------3---3/5--
---------------------------------0--0--3-------------------------
-----------------------------------------------------------------
-----------------------------------------------------------------
-----------------------------------------------------------------

-----------------------------------3----3---3---3--------------
----------------------5--3--------3----3---3---3-------------
--5p3h5--3--0--0---0--5--3--0----------------------5(7)-
-----------------------------------------------------------------
-----------------------------------------------------------------
-----------------------------------------------------------------

------------------6(8)------------------------------------------
--------------------------5--3----------------------6(8)--6(8)
--5/6/5p3---0-------------5--3---5(7)---5(7)5-----3---
-----------------------------------------------------------------
-----------------------------------------------------------------
-----------------------------------------------------------------

----6(7)---3-----------------||----3--------------------3---------
---------------6/5---3--5----||-3-----3-----------------3--3----
---------------6/5---3--5----||------------------------------------
-------------------------------||------------5--------5----------5---
-------------------------------||----------------1--------------------
-------------------------------||--------------------------------------

----3----------------------3---------------------3----------------
-3--3---3--3------------3--3-----3--3------------3--------5---
-3------3---------------3--------3------------------------5------
----------------5--3---------------------5--3---------5----------
--------------------------------------------------------------------
--------------------------------------------------------------------

--------------3----------------------------------------------------
--3--------3----------3----5---3------------------------6(7)---
--3--------3----------3----5---3---------5(7)--5(6)p3-------
------5------------5---------------5-----------------------------
-------------------------------------------------------------------
-------------------------------------------------------------------

---------6(8)---3-----------------------------------------3------
--6(8)----------------5--3--------------2/3---------3------3--
----------------------5--3--------3----------3--5---3----------
-------------------5-----------5-----------------------5---------
-------------------------------------------------------------------
-------------------------------------------------------------------

-------6-----------------------------------6h8--6---------------
--7/8-----------------------------8--8--8-----------8----------
------------5(6)p3-----------3------------------------5p3--5-
----------------------5---5---------------------------------------
-------------------------------------------------------------------
-------------------------------------------------------------------

-------------3---3/\/\----6-----------------------------3--------
-------------------------------------------------------------------
---3--3-------------------------5(7)----5p3--------3----------
---------5-----------------------------------5--5----------------
-------------------------------------------------------------------
-------------------------------------------------------------------

--------------------------------------3/\/\/\----3---6h8--6p3--
--6/8--5-------------1-------------------------------------------
----------5p3------3-----3p0--0---3--------------------------
-------------------------------------------------------------------
-------------------------------------------------------------------
----------------3-------------------------------------------------

--------------------------------6(7)------------------------------
--------------------------8------------8-----6--5--3----3------
----5(7)---5---3-----3-------7---------------6--5--3----3----
------------------5-----------------------------------5----5-----
-------------------------------------------------------------------
-------------------------------------------------------------------

--3---3--3---1--------------------3--3-----------------6--6(8)
--3---3--3---1--------------------3--3--------------------------
--------------------3h5--3p0--3----------5(7)--5/\/\/---------
--------------------------------------------------------------------
--------------------------------------------------------------------
--------------------------------------------------------------------

--3---3---3---||
--3---3---3---||   Go back to last || and repeat.
----------------||   Then the song goes to the chorus
----------------||   section and begins to fade out.
----------------||
----------------||

Almost there ...

Sign in to get your own page with links to favourite songs and more. You are just one click away...

Login with Facebook Login with Google