Log in

One click and you are in

Login with Facebook Login with Google

Why sign up and log in

Guitar Tabs Explorer
Hooker John Lee tabs for Bluebird

Guitar tabs

-1-x-1-x-1-x---------1-x-1-x-1-x-4-1---
-1-x-1-x-1-x---------1-x-1-x-1-x-----4-
-2-x-2-x-2-x---------2-x-2-x-2-x-------
-1-x-1-x-1-x---------1-x-1-x-1-x-------
-3-x-3-x-3-x---------3-x-3-x-3-x-------
-1-x-1-x-1-x-1-4-1-4-1-x-1-x-1-x-------
  this is the main riff and is reapeated through out
  the whole song by the guitar and organ.

at some point another guitar comes in and plays this
-1------------------1-x-4~~~-1---------
-1------------------1-x----------------
-2------------------2-x----------------
-1------------------1-x----------------
-3------------------3-x----------------
-1-1-4~~--1-1-4-1-4-1-x----------------

i also figured out the horn part for A chord diagramBb majorBb instruments (trumpet, tenor sax ect)
here it is

A chord diagramEb MajorEb A chord diagramF#F# A chord diagramG#G# A chord diagramG#G# A chord diagramG#G# G#~A~G# A chord diagramF#F# A chord diagramEb MajorEb

A chord diagramEb MajorEb A chord diagramF#F# A chord diagramG#G# A chord diagramG#G# A chord diagramG#G# G#~A~G# A chord diagramF#F# eb

The outro is

A chord diagramEb MajorEb A chord diagramF#F# A chord diagramG#G# A chord diagramG#G# A chord diagramG#G# A chord diagramBB A chord diagramG#G#

A chord diagramEb MajorEb A chord diagramF#F# A chord diagramG#G# A chord diagramG#G# A chord diagramG#G# b g#

Almost there ...

Sign in to get your own page with links to favourite songs and more. You are just one click away...

Login with Facebook Login with Google