Log in

One click and you are in

Login with Facebook Login with Google

Why sign up and log in

Guitar Tabs Explorer
Hoobastank bass tabs for The reason

Bass tabs

Album: The Reason
Title: The Reason

This so simple it hurts, I just wanted
to be the first to transcribe it in bass because... well, why not

Verse 2x

--------------------------------------------------------------------------------
--------------------------------------------------------------------------------
--7-7-7-7-7-7-7-7-7-7-7-7-7-7-7-7-4-4-4-4-4-4-4-4-4-4-4-4-4-4-4-4--
--------------------------------------------------------------------------------


PreChorus

--------------------------------------------------------------------------------
--------------------------------------------------------------------------------
--0-0-0-0-0-0-0-0-0-0-0-0-0-0-0-0-2-2-2-2-2-2-2-2-2-2-2-2-2-2-2-2--
--------------------------------------------------------------------------------


Chorus

--------------------------------------------------------------------------------
--------------------------------------------------------------------------------
--7-7-7-7-7-7-7-7-7-7-7-7-7-7-7-7-4-4-4-4-4-4-4-4-4-4-4-4-4-4-4-4---
--------------------------------------------------------------------------------

--------------------------------------------------------------------------------
--------------------------------------------------------------------------------
--0-0-0-0-0-0-0-0-0-0-0-0-0-0-0-0-2-2-2-2-2-2-2-2-2-2-2-2-2-2-2-2---
--------------------------------------------------------------------------------


Verse 2x

PreChorus

Chorus
Interlude

--------------------------------------------------------------------------------
--------------------------------------------------------------------------------
--5-5-5-5-5-5-5-5-5-5-5-5-5-5-5-5-7-7-7-7-7-7-7-7-7-7-7-7-7-7-7-7---
--------------------------------------------------------------------------------


Prechorus

Chorus

Almost there ...

Sign in to get your own page with links to favourite songs and more. You are just one click away...

Login with Facebook Login with Google