Log in

One click and you are in

Login with Facebook Login with Google

Why sign up and log in

Guitar Tabs Explorer
Hoobastank chords for The mirror

Guitar chords

Title: The Mirror

Album: BasketBall Shorts
 

This is the first tab of the song "The mirror by Hoobastank"

I think this is almost 100% correct! I'm not sure about the end

of the intro, but if anyone knows it better, mail me!

Have Fun!

 

Ps. Use Courier New if you want to copy it to a word document

 


Tuning: Drop A chord diagramD MajorD (DADGBE)

 


Intro

------------------------------------------------------------------------------

------------------------------------------------------------------------------

------------------------------------------------------------------------------

--2----------------------0---7-6--0-0-2----7-7--0-0-2---555555--7-6--0-0-2----

--2----------------------0---7-6--0-0-2----7-7--0-0-2---555555--7-6--0-0-2----

--2--5-3-0-5-3-0-5-3-0-0-0---7-6--0-0-2----7-7--0-0-2---555555--7-6--0-0-2----

                                                                             

 

------------------------------------------------------------------------------

------------------------------------------------------------------------------

------------------------------------------------------------------------------

-7-7--9-7-6--555550000--7-6--0-0--7-7--0-0-2--555555--------------------------

-7-7--9-7-6--555550000--7-6--0-0--7-7--0-0-2--555555--------------------------

-7-7--9-7-6--555550000--7-6--0-0--7-7--0-0-2--555555-9-7-0-9-7-0-10-9-7-------

                            (repeat) (I'm not sure)  

 

Verse

---9----5---9---5---------9--5--9---------------------------------------------

---7----3---7---3---------7--3--7---------------------------------------------

------------------------------------------------------------------------------

-------------------0-0-0--------------0-0-0-0-0-0-0-0-1-----------------------

-------------------0-0-0--------------0-0-0-0-0-0-0-0-1-----------------------

-------------------0-0-0--------------0-0-0-0-0-0-0-0-1-----------------------

                                     (Palm Mute)
(Repeat)                    

 


Chorus

------------------------------------------------------------------------------

------------------------------------------------------------------------------

------------------------------------------------------------------------------

--7-6--0-0-2--7-7--0-0-2--0-------7-6--0-0-2--7-7--9-7-6--0-0-----------------

--7-6--0-0-2--7-7--0-0-2--0-------7-6--0-0-2--7-7--9-7-6--0-0-----------------

--7-6--0-0-2--7-7--0-0-2--0-------7-6--0-0-2--7-7--9-7-6--0-0-----------------

                                                                             

------------------------------------------------------------------------------

------------------------------------------------------------------------------

------------------------------------------------------------------------------

--7-6--0-0-2--7-7--0-0-2--0---------------------------------------------------

--7-6--0-0-2--7-7--0-0-2--0---------------------------------------------------

--7-6--0-0-2--7-7--0-0-2--0-------9-7-0-9-7-0-10-9-7--------------------------

                                 
(Repeat)                                   

 


Bridge I

------------------------------------------------------------------------------

------------------------------------------------------------------------------

------------------------------------------------------------------------------

--3-3--5-5--1-1-1-1-1---------------------------------------------------------

--3-3--5-5--1-1-1-1-1---------------------------------------------------------

--3-3--5-5--1-1-1-1-1---------------------------------------------------------

                                                                             

 


Bridge II

------------------------------------------------------------------------------

------------------------------------------------------------------------------

------------------------------------------------------------------------------

--5--5----3-5-----------------------------------------------------------------

--0-------3-5-----------------------------------------------------------------

--0-------3-5-----------------------------------------------------------------

                                                            
                 

That^Áfs it!

Almost there ...

Sign in to get your own page with links to favourite songs and more. You are just one click away...

Login with Facebook Login with Google