Log in

One click and you are in

Login with Facebook Login with Google

Why sign up and log in

Guitar Tabs Explorer
Honne bass tabs for All in the value

Bass tabs

Tuning: Standard (E A D G)


Pre-Chorus:

I can no longer wait for approval

G|--------------------------------|
D|--------------------------------|
A|----------------------12\-------|
E|--------------------------------|
 1 e + e 2 e + e 3 e + e 4 e + e

Chorus:

G|------------------------5h7-4--|-------------------------------|
D|-------------------------------|-------------------------------|
A|----5-----5-----5--------------|-------------------------------|
E|-------------------------------|----7-----7-----7-------2-2-5-5|
   .   .   .          .   .   .
 1 e + e 2 e + e 3 e + e 4 e + e 1 e + e 2 e + e 3 e + e 4 e + e

G|-------------------------------|-------------------------------|
D|-------------------------------|-------------------------------|
A|-------------------------------|------------------------4------|
E|2-R-2-----2-----2--------------|----5-----5-----7--------------|
   .   .   .          .   .
 1 e + e 2 e + e 3 e + e 4 e + e 1 e + e 2 e + e 3 e + e 4 e + e


G|------------------------5h7-4--|-------------------------------|
D|-------------------------------|-------------------------------|
A|----5-----5-----5--------------|-------------------------------|
E|-------------------------------|----7-----7-----7-------2-2-5-5|
   .   .   .          .   .   .
 1 e + e 2 e + e 3 e + e 4 e + e 1 e + e 2 e + e 3 e + e 4 e + e

G|-------------------------------|-------------------------------|
D|-------------------------------|-------------------------------|
A|-------------------------------|------------------------4\-----|
E|2-R-2-----2-----2--------------|----5-----5-----7--------------|
   .   .   .          .   .
 1 e + e 2 e + e 3 e + e 4 e + e 1 e + e 2 e + e 3 e + e 4 e + e

...


Pre-Chorus:

Tell you my world is crushed now without you

G|--------------------------------|
D|--------------------------------|
A|----------------------12\-------|
E|--------------------------------|
 1 e + e 2 e + e 3 e + e 4 e + e


Chorus:

G|------------------------5h7-4--|-------------------------------|
D|-------------------------------|-------------------------------|
A|----5-----5-----5--------------|-------------------------------|
E|-------------------------------|----7-----7-----7-------2-2-5-5|
   .   .   .          .   .   .
 1 e + e 2 e + e 3 e + e 4 e + e 1 e + e 2 e + e 3 e + e 4 e + e

G|-------------------------------|-------------------------------|
D|-------------------------------|-------------------------------|
A|-------------------------------|------------------------4------|
E|2-R-2-----2-----2--------------|----5-----5-----7--------------|
   .   .   .          .   .
 1 e + e 2 e + e 3 e + e 4 e + e 1 e + e 2 e + e 3 e + e 4 e + e


G|------------------------5h7-4--|-------------------------------|
D|-------------------------------|-------------------------------|
A|----5-----5-----5--------------|-------------------------------|
E|-------------------------------|----7-----7-----7-------2-2-5-5|
   .   .   .          .   .   .
 1 e + e 2 e + e 3 e + e 4 e + e 1 e + e 2 e + e 3 e + e 4 e + e

G|-------------------------------|-------------------------------|
D|-------------------------------|-------------------------------|
A|-------------------------------|------------------------4\-----|
E|2-R-2-----2-----2--------------|----5-----5-----7--------------|
   .   .   .          .   .
 1 e + e 2 e + e 3 e + e 4 e + e 1 e + e 2 e + e 3 e + e 4 e + e


...


Bridge:

Why you running girl?

G|--------------------------------|
D|--------------------------------|
A|----------------------12\-------|
E|--------------------------------|
 1 e + e 2 e + e 3 e + e 4 e + e


Guitar Solo:

G|------------------------5h7-4--|-------------------------------|
D|-------------------------------|-------------------------------|
A|----5-----5-----5--------------|-------------------------------|
E|-------------------------------|----7-----7-----7-------2-2-5-5|
   .   .   .          .   .   .
 1 e + e 2 e + e 3 e + e 4 e + e 1 e + e 2 e + e 3 e + e 4 e + e

G|-------------------------------|-------------------------------|  2x:
D|-------------------------------|-------------------------------|
A|-------------------------------|------------------------4------|
E|2-R-2-----2-----2--------------|----5-----5-----7--------------|
   .   .   .          .   .
 1 e + e 2 e + e 3 e + e 4 e + e 1 e + e 2 e + e 3 e + e 4 e + e


Chorus:

G|------------------------5h7-4--|-------------------------------|
D|-------------------------------|-------------------------------|
A|----5-----5-----5--------------|-------------------------------|
E|-------------------------------|----7-----7-----7-------2-2-5-5|
   .   .   .          .   .   .
 1 e + e 2 e + e 3 e + e 4 e + e 1 e + e 2 e + e 3 e + e 4 e + e

G|-------------------------------|-------------------------------|  3x:
D|-------------------------------|-------------------------------|
A|-------------------------------|------------------------4------|
E|2-R-2-----2-----2--------------|----5-----5-----7--------------|
   .   .   .          .   .
 1 e + e 2 e + e 3 e + e 4 e + e 1 e + e 2 e + e 3 e + e 4 e + e


G|------------------------5h7-4--|-------------------------------|
D|-------------------------------|-------------------------------|
A|----5-----5-----5--------------|-------------------------------|
E|-------------------------------|----7-----7-----7-------2-2-5-5|
   .   .   .          .   .   .
 1 e + e 2 e + e 3 e + e 4 e + e 1 e + e 2 e + e 3 e + e 4 e + e

G|-------------------------------|-------------------------------|
D|-------------------------------|-------------------------------|
A|-------------------------------|------------------------4\-----|
E|2-R-2-----2-----2--------------|----5-----5-----7--------------|
   .   .   .          .   .
 1 e + e 2 e + e 3 e + e 4 e + e 1 e + e 2 e + e 3 e + e 4 e + e


************************************

| \ Slide down
| h Hammer On
| R Rest / Pause
| . Staccato

************************************

Almost there ...

Sign in to get your own page with links to favourite songs and more. You are just one click away...

Login with Facebook Login with Google