Search tabs and chords

Search for song, artist or band

Log in

One click and you are in

Login with Facebook Login with Google

Why sign up and log in

Guitar Tabs Explorer
Honeywater guitar tabs for 7 hours ago

Guitar tabs

  • Capo on 4th
Tuning: Standard (E A D G B E)

Difficulty: Intermediate

Intro:
e|--------0-----------------------0-----------------------0--------2--------0----------|
B|-----------0-----0-----------------0-----0-----------------0--------0--------0-----0-|
G|--------------1-----------------------2-----------------------2--------2--------2----|
D|--2--2--------------------4--4--------------------0--0-------------------------------|
A|-------------------------------------------------------------------------------------|
E|-------------------------------------------------------------------------------------|

e|--------5p4--0-----0------------0----------------------0--------2--------0-----------|
B|----------------0------------------0-----0----------------0--------0--------0-----0--|
G|--------------------------------------2----------------------2--------2--------2-----|
D|--2--2-------------------4---4-------------------0--0--------------------------------|
A|-------------------------------------------------------------------------------------|
E|-------------------------------------------------------------------------------------|


Verse 1, 2, 3 & Chorus:

e|--------0-----------------------0-----------------------0--------2--------0----------|
B|-----------0-----0-----------------0-----0-----------------0--------0--------0-----0-|
G|--------------1-----------------------2-----------------------2--------2--------2----|
D|--2--2--------------------4--4--------------------0--0-------------------------------|
A|-------------------------------------------------------------------------------------|
E|-------------------------------------------------------------------------------------|

^ This is the same as the first part of the intro and
just repeats over and over until you get to this line in Verse 3

'Through all the way to me and you
MeeeeeEEEEeeeeeEEEEeeeee...'

e|--------0-----------------------0-----------------------0----------------------------|
B|-----------0-----0-----------------0-----0-----------------0-----0-------------------|
G|--------------1-----------------------2-----------------------2----------------------|
D|--2--2--------------------4--4--------------------0--0--------------0----------------|
A|-------------------------------------------------------------------------------------|
E|-------------------------------------------------------------------------------------|

This is how the tab should end on the elongated 'Me' - with an open D. Then you just break into the strumming
pattern of DD UU DU for the remainder of the song.


Outro:

Is the Intro x2, finish with a down trum of

e|--0------|
B|--0------|
G|--1------|
D|--2------|
A|---------|
E|---------|

Other versions of 7 Hours Ago

7 hours agoChords

Almost there ...

Sign in to get your own page with links to favourite songs and more. You are just one click away...

Login with Facebook Login with Google