Log in

One click and you are in

Login with Facebook Login with Google

Why sign up and log in

Guitar Tabs Explorer
The Honeydrippers guitar tabs for Sea of love

Guitar tabs with lyrics

Tuning: Standard

Difficulty: Novice

Key
A chord diagramBB - Bend
R - Release Bend
S - Slide
L.S. - legato slide
H - Hammer-on
P - pull off
~ - vibrato/held note
* - Mute/staccato note
Verse:

Do you remember.....when we met
A chord diagramG MajorG                   A chord diagramB minorBm
That's the day.....I knew you were my pet
A chord diagramC/FC/F                     A/Am
I want to tell you...how much I love you
A chord diagramG MajorG                  A/Am           A chord diagramG MajorG        C, A chord diagramG MajorG

Other verses keep the same chords


Chorus:

Come with me......to the sea
A chord diagramD MajorD         A chord diagramC majorC       A chord diagramD MajorD       A chord diagramC majorC
    of.......love........
    A chord diagramB minorBm         A chord diagramD MajorD


Solo:
The chords for the solo are the same as the verses, just raised one semi-tone.(i.e. A chord diagramD MajorD
D#, A chord diagramB minorBm becomes Cm, etc.)

Listen to the original track for the timings. Played with a slide?

Bends and slides will do, but use a slide if you wish.

"I want to tell you...oh, how much, I love you...."

|------10-*--------10-*----10-/12---15-15-15-|
|----12----------12--------------------------|
|12----------12------------------------------|
|--------------------------------------------| Pre Solo (Strings bit)
|--------------------------------------------|
|--------------------------------------------|
                           S
|---------------------------------------------------------|
|---------------------------------------------------------|
|---------------13/15--17~~~17--15-13-12---13-12--/15-13-|
| --13b15--13---------------------------------------------|
|---------------------------------------------------------|
|---------------------------------------------------------|
      A chord diagramBB          L.S.            S                  L.S.

|--------------------------------------------------------------|
|--------------------------------14/16---16-13--11-13-/15--11-|
|13-12-10-12-13-/15~~-15-10-----------------------------------|
|--------------------------------------------------------------|
|--------------------------------------------------------------|
|--------------------------------------------------------------|
                 S                L.S.      S           S

|------------------------------------------------|
|14-13-11----------------------------------------|
|---------13--------12-131210------------------|
|-----------13---13------------------13B15R13~~~-|
|---------------------------------15-------------|
|------------------------------------------------|
                         S  S          A chord diagramBB  R

|16-*-15-*-6H8P6-|
|----------------|
|----------------|
|----------------| Ending String Bit
|----------------|
|----------------|
           H  P

"Come with me....."
The chords from the verses and choruses just repeat from here on, one semi-tone higher, of course.

? - At this point just before the solo, it sounds as if Jimmy Page/Jeff
Beck slides to the thirteenth fret, and back down, fairly quickly.

Enjoy.

Other versions of Sea Of Love

Sea of loveChords

Almost there ...

Sign in to get your own page with links to favourite songs and more. You are just one click away...

Login with Facebook Login with Google