Search tabs and chords

Search for song, artist or band

Log in

One click and you are in

Login with Facebook Login with Google

Why sign up and log in

Guitar Tabs Explorer
Akihiro Honda guitar tabs for Yoi no yokushiryoku love deterrence

Yoi No Yokushiryoku Love Deterrence tab by Akihiro Honda

Akihiro Honda guitar tabs for Yoi no yokushiryoku love deterrence

Guitar tabs

Tuning: Standard (E A D G B E)

Difficulty: Intermediate

E|--1--3---3/4------3h4--6-----4---6/8--8------8\6--6-----4---------------------------------------------------
B|------------------------------------------------------------------4/-6\4------------------------------------
G|-----------------------------------------------------------------------------5---------3/-5\3-----1---------
D|------------------------------------------------------------------------------------------------------------
A|------------------------------------------------------------------------------------------------------------
E|------------------------------------------------------------------------------------------------------------

E|------------------------------------------------------6r4---4h6v--------6/11--------------------------------
B|------------------------------------6r4---4h6v--4/6---------------------------------------------------------
G|---------3r1h3--3---5r3---3h5--5----------------------------------------------------------------------------
D|------------------------------------------------------------------------------------------------------------
A|------------------------------------------------------------------------------------------------------------
E|------------------------------------------------------------------------------------------------------------

E|----------------------------------------------------------------6--6--6---6h8--6----------------------------
B|-------8--8--8-----8--8--6--6--8--9--9--8---6\5---5/6--6--8--9--------------------9--8--8---8h9--8--6---6\4-
G|--3/5-----------3-------------------------------------------------------------------------------------------
D|------------------------------------------------------------------------------------------------------------
A|------------------------------------------------------------------------------------------------------------
E|------------------------------------------------------------------------------------------------------------

E|------------------------------------------------------------------------5h8r5-------------------------------
B|-----------------6--8--8--9--8--6---6\4--4-----4--6v----4--6--6---8/9----------9--8--9------------8/9--8--6-
G|---5/6--6---6\8-----------------------------------------------------------------------------3/5-------------
D|------------------------------------------------------------------------------------------------------------
A|------------------------------------------------------------------------------------------------------------
E|------------------------------------------------------------------------------------------------------------

E|---------------------------------------------------------------------------6h8r6----------------------------
B|---------------8/9--9--8--6------------------8h9r8--6-----6--6---6h8--9-----------9--8----------------------
G|---3/5--5--5---------------------3/5--5--5-------------8--------------------------------8-------------------
D|------------------------------------------------------------------------------------------------------------
A|------------------------------------------------------------------------------------------------------------
E|------------------------------------------------------------------------------------------------------------

E|------------------------------------------------------------------------7h9r7-------------------------------
B|--------------------6--8---8h9--8--6---6\4--4--4--6-----4--6--6---8/9----------9--8--9----------------------
G|--5--6v----5--6--8------------------------------------------------------------------------------------------
D|------------------------------------------------------------------------------------------------------------
A|------------------------------------------------------------------------------------------------------------
E|------------------------------------------------------------------------------------------------------------

E|---3h4--3----------------------------------------------------------4--4--3-------------------------3--3--3--
B|---------------4/6--4----------------------------------------------4--4--4--4--4-----6--6----------6--6--6--
G|--------------------------5-----3-----3---3/5--5\1--------------------------5--5-----5--5----------5--------
D|---------------------------------------------------------------------------------------------------^--------
A|-------------------------------------------------------------------------------------------------strum------
E|------------------------------------------------------------------------------------------------------------

E|-----3--3-----3--4--6---8/10-----8r6h8--------3------3/4----6--8--8--------8-----------8------8--6----------
B|-----6----------------------------------------6------6/5----7--9--6-----6--------6-----6---6-----6----------
G|-----5----------------------------------------5-------------------6--------------------6---------6----------
D|-----^----------------------------------------^-------------------^--------------------^---------^----------
A|---strum------------------------------------strum-----------------------------------------------------------
E|------------------------------------------------------------------------------------------------------------

E|---4h6---6r4---4h6----6/8---------------4--6--8--------8-----------8---------8--6---------------------------
B|---------------------------8------6-----------6-----6--------6-----6------6-------------------6-----8-----9-
G|----------------------------------------------6--------------------6-----------------6-----8----------------
D|----------------------------------------------^--------------------^----------------------------------------
A|------------------------------------------------------------------------------------------------------------
E|------------------------------------------------------------------------------------------------------------

E|---------------------6-----8---8--------8-----------8--------8---11-9------8\6-6---4h6-------6/8------------
B|--------6--8-----9-------------6-----6--------6-----6-----6-------8--------8-------4--------------8-------6-
G|--6--8-------------------------6--------------------6-------------8--------8-------4------------------------
D|-------------------------------^--------------------^----------------------^-------^------------------------
A|------------------------------------------------------------------------------------------------------------
E|------------------------------------------------------------------------------------------------------------

E|--4--6--8--------8-----------8--------8--6-------------------------------------------------6-----8-----9--8-
B|--------6-----6--------6-----6-----6---------------6-----8--8/9-----8-----6-------8--8--9--9-----6-----8----
G|--------6--------------------6---------------------6-----8--8-------8-----6-------8--8--8-------------------
D|--------^--------------------^------------------------------------------------------------------------------
A|------------------------------------------------------------------------------------------------------------
E|------------------------------------------------------------------------------------------------------------

Credits: https://www.youtube.com/watch?v=gwUt1Km6gBw - I modifed a bit


************************************

| h  Hammer-on
| /  Slide up
| \  Slide down
| r  Release

************************************

Almost there ...

Sign in to get your own page with links to favourite songs and more. You are just one click away...

Login with Facebook Login with Google